Zacznij systematycznie uczyć się grać na gitarze razem ze stroną Moja nauka - będziesz miał/miała do niej dostęp po zalogowaniu się w serwisie

Łosiem - Hunter

Opracował -a: lllukasz111,
Dodał -a: lllukasz111,
Redaktor: Seba,
Pochodzi z: http://www.chords.pl/
Data publikacji: 2013-01-25 15:59
 
Moja nauka


Ups, problem :-/
Zaloguj się Mój śpiewnik
D------------------------------------
A------------------------------------
F------2---3-------------------------
C--2---2---3-------------------------
G--2---0---1-------------------------
C--2---------------------------------

D---------------------------------------------------
A---------------------------------------------------
F-------222--333-----555--7777----------------------
C--222--222--333--2--555--7777----------------------
G--222--000--111--2--333--5555----------------------
C--222------------2---------------------------------

D---------------------------------------------------
A---------------------------------------------------
F---------------------------------------------------
C---------------------------------------------------
G-2s3-2s3-2s3-2s3-33s2------------------------------
C-2s3-2s3-2s3-2s3-33s2------------------------------

D---------------------------------------------------
A---------------------------------------------------
F-------222--333-----5555-55-55-5s4-44--------------
C--222--222--333--2--5555-55-55-5s4-44--------------
G--222--000--111--2--3333-33-33-3s2-22--------------
C--222------------2---------------------------------

Dodaj komentarz ...i/lub link do filmiku video

Zaloguj się do serwisu
Wszelkie materiały i wypowiedzi zamieszczone na www.chords.pl są własnością ich autorów.