Zacznij systematycznie uczyć się grać na gitarze razem ze stroną Moja nauka - będziesz miał/miała do niej dostęp po zalogowaniu się w serwisie

TshaZshyC - Hunter

Opracował -a: petlica,
Dodał -a: petlica,
Redaktor: petlica,
Pochodzi z: http://www.chords.pl
Data publikacji: 2011-05-23 08:38
 
Moja nauka


Ups, problem :-/
Zaloguj się Mój śpiewnik
dropped C

Intro - Riff A
D|--------------------|------------------------|
A|--------------------|------------------------|
F|--------------------|------------------------|
C|--------------------|------------------------|
G|--------------------|------------------------|
C|-0-2-2-2-2--0-2-2-2-|-2~----(2)~-------------|
   pm.....    pm.....

D|--------------------|------------------------|
A|--------------------|------------------------|
F|--------------------|------------------------|
C|--------------------|------------------------|
G|--------------------|------------------------|
C|-0-2-2-2-2--0-2-2-2-|-2~----(2)b(3)r(2)------|
   pm.....    pm.....

D|--------------------|----------------------------|
A|--------------------|----------------------------|
F|--------------------|----------------------------|
C|--------------------|----------------------------|
G|--------------------|----------------------------|
C|-0-2-2-2-2--0-2-2-2-|-2~---0-2-2-2-2--0-2-3-3-3--|
   pm.....    pm.....        pm.....     pm.......


D|--------------------|----------------------------|
A|--------------------|----------------------------|
F|--------------------|----------------------------|
C|--------------------|----------------------------|
G|--------------------|----------------------------|
C|-0-2-2-2-2--0-2-2-2-|-2~---0-2-2-2-2--0-2-3------|
   pm.....    pm.....        pm.....     pm....


 Riff B                      x3
|------------------------------|------------------------------|
|------------------------------|------------------------------|
|------------------------------|------------------------------|
|-0--2--0--2--0--2--0--2--3----|-0--2--0--2--0--2-------------|
|-0--2--0--2--0--2--0--2--3----|-0--2--0--2--0--2-------------|
|-0--2--0--2--0--2--0--2--3----|-0--2--0--2--0--2-------------|


Riff C
|---------------------|---------------------|---------------------|----------------------|
|---------------------|---------------------|---------------------|----------------------|
|---------------------|---------------------|---------------------|----------------------|
|---------------------|---------------------|---------------------|----------------------|
|---------------------|---------------------|---------------------|----------------------|
|-0--0--0-0----0-0-3~-|-0--0--0-0----6-6-5~-|-0--0--0-0----0-0-3~-|-0--0--0-6-6-5-6-6-5~-|
  pm..............     pm...............      pm..............      pm...............


Riff B                      x3
|------------------------------|------------------------------|
|------------------------------|------------------------------|
|------------------------------|------------------------------|
|-0--2--0--2--0--2--0--2--3----|-0--2--0--2--0--2-------------|
|-0--2--0--2--0--2--0--2--3----|-0--2--0--2--0--2-------------|
|-0--2--0--2--0--2--0--2--3----|-0--2--0--2--0--2----12/------|


Ref - Riff D
|----------------|----------------|----------------|----------------|
|----------------|----------------|----------------|----------------|
|----------------|----------------|----------------|----------------|
|-0--------------|-5--------------|-3--------------|-10-------------|
|-0--------------|-5--------------|-3--------------|-10-------------|
|-0--------------|-5--------------|-3--------------|-10-------------|


|----------------|----------------|----------------|----------------|
|----------------|----------------|----------------|----------------|
|----------------|----------------|----------------|----------------|
|-0--------------|-5--------------|-3--------------|-6--------------|
|-0--------------|-5--------------|-3--------------|-6--------------|
|-0--------------|-5--------------|-3------------3-|-6--------------|
                                                 pm


|----------------|----------------|----------------|----------------|
|----------------|----------------|----------------|----------------|
|----------------|----------------|----------------|----------------|
|-0--------------|-1--------------|-3--------------|-5--------------|
|-0--------------|-1--------------|-3--------------|-3--3-3-3-3-3-3-|
|-0--0-0-0-0-0-0-|-1--1-1-1-1-1-1-|-3--3-3-3-3-3-3-|----------------|
     pm.........      pm.........      pm.........      pm.........

|----------------|----------------|----------------|----------------|
|----------------|----------------|----------------|----------------|
|----------------|----------------|----------------|----------------|
|-0--------------|-1--------------|-3--------------|-5--------------|
|-0--------------|-1--------------|-3--------------|-3--------------|
|-0--0-0-0-0-0-0-|-1--1-1-1-1-1-1-|-3--3-3-3-3-3-3-|-5--------------|
     pm.........      pm.........      pm.........


 Riff E- solo background      x3
|------------------------------|------------------------------|
|------------------------------|------------------------------|
|------------------------------|------------------------------|
|-------------------------8----|-------------------------1----|
|-------------------------8----|-------------------------1----|
|-5--7--5--7--5--7--5--7--8----|-5--7--5--7--5--7--5--7--1----|

Dodaj komentarz ...i/lub link do filmiku video

Zaloguj się do serwisu
Ostatnie komentarze
1.
petlica
2011-05-24 08:36
oj chyba ciężko będzie, słabo to słyszę ale może się uda
2.
rybazmarsa88
2011-05-23 14:56
można prosić o rozczytanie cztery wieki??
Wszelkie materiały i wypowiedzi zamieszczone na www.chords.pl są własnością ich autorów.