Zacznij systematycznie uczyć się grać na gitarze razem ze stroną Moja nauka - będziesz miał/miała do niej dostęp po zalogowaniu się w serwisie

Trumian Show (tab) - Hunter

Opracował -a: Unbreak,
Dodał -a: Unbreak,
Redaktor: Seba,
Pochodzi z: http://www.chords.pl/
Data publikacji: 2012-12-31 14:12
 
Moja nauka


Ups, problem :-/
Zaloguj się Mój śpiewnik
~Unbreak~
"X" nad tabulaturą oznacza tłumienie prawą dłonią. Miejscami brzmienie może troche odbiegać 
od oryginału.
W utworze są 2 partie gitarowe, zazwyczaj jednak gra tylko jedna gitara. Pooddzielałem linią 
fragmenty, które są grane na 2 gitary.

           x   x         x   x         x   x         x   x
E|------------------------------------------------------- 
H|------------------------------------------------------- 
G|--3h5-5---------3h5-5--------3h5-5--------3h5-5-------- 
D|--3h5-----------3h5----------3h5----------3h5---------- 
A|---------3--3----------3--3---------3--3---------3--3-- 
E|------------------------------------------------------- 
           x   x         x   x         x   x         x   x
E|----------------------------------------------------------
H|------------------------------3h5-5---------3h5-5---------
G|------------------------------3h5-----------3h5-----------
D|--5h6-6---------5h6-6----------------3---3---------3---3--
A|--5h6-----------5h6---------------------------------------
E|---------4---4---------4---4------------------------------

           x   x         x   x         x   x         x   x
E|------------------------------------------------------- 
H|------------------------------------------------------- 
G|--3h5-5---------3h5-5--------3h5-5--------3h5-5-------- 
D|--3h5-----------3h5----------3h5----------3h5---------- 
A|---------3--3----------3--3---------3--3---------3--3-- 
E|------------------------------------------------------- 

           x   x         x   x         x   x         x   x
E|----------------------------------------------------------
H|------------------------------3h5-5---------3h5-5---------
G|------------------------------3h5-----------3h5-----------
D|--5h6-6---------5h6-6----------------3---3---------3---3--
A|--5h6-----------5h6---------------------------------------
E|---------4---4---------4---4------------------------------


E|------------------------------------------------------------------------
H|------------------------------------------------------------------------
G|--------------------------------------3p0--0--3h5--5--------------------
D|--5/(6)--66--66\(5)--55--5------------3p0--0--3h5--5----------6666-5-3-5
A|--5/(6)--66--66\(5)--55--5----------------------------3-5-6---6666-5-3-5
E|--3/(4)--44--44\(3)--33--3/(6)\(3)-3--------------------------4444-3-1-3


______________________________


I gitara

E|-------------------------------------------------------
H|-------------------------------------------------------
G|--3h5-5---------3h5-5--------3h5-5--------3h5-5--------
D|--3h5-----------3h5----------3h5----------3h5----------
A|-------------------------------------------------------
E|-------------------------------------------------------

II gitara

E|-------------------------------------------------------
H|-------------------------------------------------------
G|-------------5------------5-------------5------------5-
D|---------3h5----------3h5-----------3h5----------3h5---
A|-------------------------------------------------------
E|-------------------------------------------------------

I gitara

           x   x         x   x         x   x         x   x
E|------------------------------------------------------- 
H|------------------------------------------------------- 
G|--3h5-5---------3h5-5--------3h5-5--------3h5-5-------- 
D|--3h5-----------3h5----------3h5----------3h5---------- 
A|---------3--3----------3--3---------3--3---------3--3-- 
E|------------------------------------------------------- 

II gitara

           x   x         x   x         x   x
E|----------------------------------------------------------
H|----------------------------------------------------------
G|--5-5----5---5--5-5----5---5--5-5----5---5--5-5-----------
D|--5-5----5---5--5-5----5---5--5-5----5---5--5-5--------1-0
A|--3-3----3---3--3-3----3---3--3-3----3---3--3-3--2/(3)-1-0
E|-------------------------------------------------2/(3)----

I gitara

           x   x         x   x         x   x         x   x
E|------------------------------------------------------- 
H|------------------------------------------------------- 
G|--3h5-5---------3h5-5--------3h5-5--------3h5-5-------- 
D|--3h5-----------3h5----------3h5----------3h5---------- 
A|---------3--3----------3--3---------3--3---------3--3-- 
E|------------------------------------------------------- 

II gitara

           x   x         x   x         x   x         x   x
E|----------------------------------------------------------
H|----------------------------------------------------------
G|--5---5--5---5--5---5--5---5--5---5--5---5--5---5--5---5--
D|--5---5--5---5--5---5--5---5--5---5--5---5--5---5--5---5--
A|--3---3--3---3--3---3--3---3--3---3--3---3--3---3--3---3--
E|----------------------------------------------------------

I gitara

           x   x         x   x         x   x         x   x
E|----------------------------------------------------------
H|------------------------------3h5-5---------3h5-5---------
G|------------------------------3h5-----------3h5-----------
D|--5h6-6---------5h6-6----------------3---3---------3---3--
A|--5h6-----------5h6---------------------------------------
E|---------4---4---------4---4------------------------------

II gitara

           x   x         x   x         x   x
E|----------------------------------------------------------
H|----------------------------------------------------------
G|------------------------------5-5----5---5--5-5-----------
D|--6-6----6---6--6-6----6---6--5-5----5---5--5-5------34---
A|--6-6----6---6--6-6----6---6--3-3----3---3--3-3--013234---
E|--4-4----4---4--4-4----4---4---------------------0132-----

I gitara

           x   x         x   x         x   x         x   x
E|------------------------------------------------------- 
H|------------------------------------------------------- 
G|--3h5-5---------3h5-5--------3h5-5--------3h5-5-------- 
D|--3h5-----------3h5----------3h5----------3h5---------- 
A|---------3--3----------3--3---------3--3---------3--3-- 
E|------------------------------------------------------- 

II gitara

           x   x         x   x         x   x         x   x
E|----------------------------------------------------------
H|----------------------------------------------------------
G|--5---5--5---5--5---5--5---5--5---5--5---5--5---5--5---5--
D|--5---5--5---5--5---5--5---5--5---5--5---5--5---5--5---5--
A|--3---3--3---3--3---3--3---3--3---3--3---3--3---3--3---3--
E|----------------------------------------------------------

I gitara

           x   x         x   x         x   x         x   x
E|----------------------------------------------------------
H|------------------------------3h5-5---------3h5-5---------
G|------------------------------3h5-----------3h5-----------
D|--5h6-6---------5h6-6----------------3---3---------3---3--
A|--5h6-----------5h6---------------------------------------
E|---------4---4---------4---4------------------------------

II gitara

           x   x         x   x         x   x
E|----------------------------------------------------------
H|----------------------------------------------------------
G|------------------------------5-5----5---5--5-5-----------
D|--6-6----6---6--6-6----6---6--5-5----5---5--5-5------34---
A|--6-6----6---6--6-6----6---6--3-3----3---3--3-3--143234---
E|--4-4----4---4--4-4----4---4---------------------1432-----

______________________________________


                                          xx                                x x x  x
E|-----------------------------------------------------------------------------------
H|-----------------------------------------------------------------------------------
G|--------------------------------------3-33---3h5--5----------------------5-7-8-10--
D|--5/(6)--66--66\(5)--55--5------------3-33---3h5--5----------5/666-5-555-5-7-8-10--
A|--5/(6)--66--66\(5)--55--5------------1-11-----------3-5-6---5/666-5-555-3-5-6-8---
E|--3/(4)--44--44\(3)--33--3/(6)\(3)-3-------------------------3/444-3-333--0-0-0--0-

E|-----------------------------------------------------------------------------------
H|-----------------------------------------------------------------------------------
G|--------------------------------------3-33---3h5--5--------------------------------
D|--5/(6)--66--66\(5)--55--5------------3-33---3h5--5----------5/666-5-3-5-----------
A|--5/(6)--66--66\(5)--55--5------------1-11-----------3-5-6---5/666-5-3-5-----------
E|--3/(4)--44--44\(3)--33--3/(6)\(3)-3-------------------------3/444-3-1-3-----------

                       x                                x
E|--------------------------------------------------------------------
H|----4--------------------------------4------------------------------
G|--5-5--588888777777--3-5/7\5/8\6---5-5--588888777777--3-5/6\5/7/8---
D|--5-5--588888777777--3-5/7\5/8\6---5-5--588888777777--3-5/6\5/7/8---
A|--3-3--366666555555--1-3/5\3/6\4---3-3--366666555555--1-3/4\3/5/6---
E|--------------------------------------------------------------------

                       x                                     x
E|--------------------------------------------------------------------
H|----4--------------------------------4------------------------------
G|--5-5--588888777777--3-5/7/8\7\6---5-5--588888777777----------------
D|--5-5--588888777777--3-5/7/8\7\6---5-5--588888777777---5/6-6-3/5----
A|--3-3--366666555555--1-3/5/6\5\4---3-3--366666555555---5/6-6-3/5----
E|-------------------------------------------------------3/4-4-1/3----

____________________________________


I gitara

E|-----11----11----11----11----11----11----10----10-----------------
H|--13----13----13----13----13----13----11----11--------------------
G|------------------------------------------------------------------
D|------------------------------------------------------------------
A|------------------------------------------------------------------
E|------------------------------------------------------------------

II gitara

           x   x         x   x         x   x
E|------------------------------------------------------------------
H|------------------------------------------------------------------
G|--3h5-5---------3h5-5--------3h5-5--------3h5-5-------------------
D|--3h5-----------3h5----------3h5----------3h5----------------1-0--
A|---------3--3----------3--3---------3--3---------3--3---2/3--1-0--
E|--------------------------------------------------------2/3------- 

I gitara

E|--9b---9-----9-----9-----9-----9-----9-----8-----8-----------
H|--9b------9-----9-----9-----9-----9-----8-----8--------------
G|-------------------------------------------------------------
D|-------------------------------------------------------------
A|-------------------------------------------------------------
E|-------------------------------------------------------------

II gitara

           x   x         x   x         x   x
E|------------------------------------------------------------------
H|------------------------------------------------------------------
G|--3h5-5---------3h5-5--------3h5-5--------3h5-5-------------------
D|--3h5-----------3h5----------3h5----------3h5----------------1-0--
A|---------3--3----------3--3---------3--3---------3--3---2/3--1-0--
E|--------------------------------------------------------2/3------- 

__________________________________


           x   x         x   x         x   x         x   x
E|------------------------------------------------------- 
H|------------------------------------------------------- 
G|--3h5-5---------3h5-5--------3h5-5--------3h5-5-------- 
D|--3h5-----------3h5----------3h5----------3h5---------- 
A|---------3--3----------3--3---------3--3---------3--3-- 
E|------------------------------------------------------- 

           x   x         x          x    x    x
E|------------------------------------------------
H|------------------------------------------------
G|-------------------------3/5--------------------
D|--5h6-6---------5h6-6----3/5---23-3-34-4-45-5-56
A|--5h6-----------5h6------1/3---23-3-34-4-45-5-56
E|---------4---4---------4-----0-01-1-12-2-23-3-34

           x   x         x   x         x   x         x   x
E|------------------------------------------------------- 
H|------------------------------------------------------- 
G|--3h5-5---------3h5-5--------3h5-5--------3h5-5-------- 
D|--3h5-----------3h5----------3h5----------3h5---------- 
A|---------3--3----------3--3---------3--3---------3--3-- 
E|------------------------------------------------------- 

           x   x         x                x
E|-------------------------------------------------
H|-------------------------------------------------
G|-------------------------------------------------
D|--5h6-6---------5h6-6----5-6-6\5\3/5/6--2-23-3-34
A|--5h6-----------5h6------5-6-6\5\3/5/6--2-23-3-34
E|---------4---4---------4-3-4-4\3\1/3/4--0-01-1-12

                                          xx                                x x x  x
E|-----------------------------------------------------------------------------------
H|-----------------------------------------------------------------------------------
G|--------------------------------------3-33---3h5--5----------------------5-7-8-10--
D|--5/(6)--66--66\(5)--55--5------------3-33---3h5--5----------5/666-5-555-5-7-8-10--
A|--5/(6)--66--66\(5)--55--5------------1-11-----------3-5-6---5/666-5-555-3-5-6-8---
E|--3/(4)--44--44\(3)--33--3/(6)\(3)-3-------------------------3/444-3-333--0-0-0--0-

E|--------------------------------------------------------------------
H|----4--------------------------------4------------------------------
G|--5-5--588888777777--3-5/7\5/8\6---5-5--588888777777--3-5/6\5/7/8---
D|--5-5--588888777777--3-5/7\5/8\6---5-5--588888777777--3-5/6\5/7/8---
A|--3-3--366666555555--1-3/5\3/6\4---3-3--366666555555--1-3/4\3/5/6---
E|--------------------------------------------------------------------

                       x                                     x
E|--------------------------------------------------------------------
H|----4--------------------------------4------------------------------
G|--5-5--588888777777--3-5/7/8\7\6---5-5--588888777777----------------
D|--5-5--588888777777--3-5/7/8\7\6---5-5--588888777777---5/6-6-3/5----
A|--3-3--366666555555--1-3/5/6\5\4---3-3--366666555555---5/6-6-3/5----
E|-------------------------------------------------------3/4-4-1/3----


           x   x         x   x         x   x         x    
E|------------------------------------------------------- 
H|------------------------------------------------------- 
G|--3h5-5---------3h5-5--------3h5-5--------3h5-5-------- 
D|--3h5-----------3h5----------3h5----------3h5---------- 
A|---------3--3----------3--3---------3--3---------3--3-- 
E|------------------------------------------------------- 

    x    x    x    x            x   x         x    x    x    x
E|-------------------------------------------------------------------------------------------------
H|-----------------------3h5-5---------3h5-5----------------------3h5-5---------3h5-5---------3h5-5
G|-----------------------3h5-----------3h5------------------------3h5-----------3h5-----------3h5--
D|--2-23-3-34-4-45-5-56---------3---3-----------54---35---23---01--------3---3---------3---3-------
A|--2-23-3-34-4-45-5-56-------------------------54---35---23---01----------------------------------
E|--0-01-1-12-2-23-3-34-----------------------0-32-0-13-0-01-0-------------------------------------

Dodaj komentarz ...i/lub link do filmiku video

Zaloguj się do serwisu
Ostatnie komentarze
1.
Unbreak
2013-01-12 13:23
Dziękuję, jesteś wielki ;)
2.
Tomek Pietrzkowski
2013-01-12 10:56
@Unbreak Jest już poprawione :)
3.
Unbreak
2013-01-11 15:59
Oh k*****. Dopiero teraz zauważyłem, cała tabulatura do poprawy. Wszystko co jest tak: E|---------------------------------------------------------- H|--3h5-5---------3h5-5---------3h5-5---------3h5-5--------- G|--3h5-----------3h5-----------3h5-----------3h5----------- D|---------3---3---------3---3---------3---3---------3---3-- A|---------------------------------------------------------- E|---------------------------------------------------------- Powinno być tak: E|------------------------------------------------------- H|------------------------------------------------------- G|--3h5-5---------3h5-5--------3h5-5--------3h5-5-------- D|--3h5-----------3h5----------3h5----------3h5---------- A|---------3--3----------3--3---------3--3---------3--3-- E|------------------------------------------------------- Jeszcze jakby można było to edytować. Pozdrawiam
4.
petlica
2013-01-11 08:40
Coś tu nie gra. Ten pierwszy riff to chyba coś jest źle zapisany. Proponuję przestoić gitarę w dół o cały ton do dropped-C. Jeżeli bardzo chciałbyś grać stroju standardowym to początek leci wg mnie tak E|----------------------------------------------------------| H|----------------------------------------------------------| G|------5-------------5-------------5-------------5---------| D|--3h5-----------3h5-----------3h5-----------3h5-----------| A|--3------3---3--3------3---3--3------3---3--3------3---3--| E|----------------------------------------------------------| pm.... pm.... pm.... pm... Pozdr
Wszelkie materiały i wypowiedzi zamieszczone na www.chords.pl są własnością ich autorów.