Zacznij systematycznie uczyć się grać na gitarze razem ze stroną Moja nauka - będziesz miał/miała do niej dostęp po zalogowaniu się w serwisie

Arges - Hunter

Opracował -a: petlica,
Dodał -a: petlica,
Redaktor: petlica,
Pochodzi z: http://www.chords.pl
Data publikacji: 2011-06-15 08:44, Poprawiono 2011-06-15 08:45
 
Moja nauka


Ups, problem :-/
Zaloguj się Mój śpiewnik
dropped C

Intro (Piano)
|----------------|----------------|----------------|----------------|
|----------------|----------------|----------------|----------------|
|----------------|----------------|----------------|----------------|
|----------------|----------------|----------------|----------------|
|----------------|----------------|----------------|----------------|
|-0------0-------|-0------0-------|-0------0-------|-0------0-------|


|----------------|----------------|----------------|----------------|
|----------------|----------------|----------------|----------------|
|----------------|----------------|----------------|----------------|
|----------------|----------------|----------------|----------------|
|----------------|----------------|----------------|--------4-------|
|-0------0-------|-0------0-------|-0------0-------|-0--------------|


|----------------|----------------|----------------|----------------|
|----------------|----------------|----------------|----------------|
|----------------|----------------|----------------|----------------|
|----------------|----------------|----------------|----------------|
|----------------|----------------|----------------|----------------|
|-0------0-------|-0------0-------|-0------0-------|-0---7--6--2----|


 (Guitar)
|----------------|----------------|----------------|----------------|
|----------------|----------------|----------------|----------------|
|----------------|----------------|----------------|----------------|
|-0--------------|----------------|----------------|----------------|
|-0--------------|----------------|----------------|----------------|
|-0-----(0)------|-(0)----(0)-----|-(0)----(0)-----|-(0)----(0)-----|


|----------------|----------------|----------------|----------------|
|----------------|----------------|----------------|----------------|
|----------------|----------------|----------------|----------------|
|----------------|----------------|----------------|----------------|
|-0--------------|-0--------------|-0--------------|-0--------------|
|-0--------------|-0--------------|-0--------------|-0--/7~-6~-2~---|
  pm               pm               pm              pm      PH...

                                                    1...............  2......................
|----------------|----------------|----------------|----------------|-------------------------|
|----------------|----------------|----------------|----------------|-------------------------|
|----------------|----------------|----------------|----------------|-------------------------|
|-8------0-------|-8------0-------|-8------0-------|-7--------------|-7-7-7-7-7-7-7-----3/4/5-|
|-8------0-------|-8------0-------|-8------0-------|-7--------------|-7-7-7-7-7-7-7-----1/2/3-|
|-8------0-------|-8------0-------|-8------0-------|-7--------------|-7-7-7-7-7-7-7-----------|
                                                                      pm...........



                           1........................ 2.........................
|-------------------------|-------------------------|--------------------------|
|-------------------------|-------------------------|--------------------------|
|-------------------------|-------------------------|--------------------------|
|-8-----7-----5/7---7-----|-3----------1------3/4/5-|-3-----------1------3/4/5-|
|-6-----5-----3/5---5-----|-3----------1------1/2/3-|-3---3-1h3p1-1------1/2/3-|
|---0-0---0-0-----0---0-0-|-3----------1------------|-3-----------1------------|
    pm.   pm.    pm   pm.

 3........................ 4.........................
|-------------------------|--------------------------|----------------|----------------|
|-------------------------|--------------------------|----------------|----------------|
|-------------------------|--------------------------|----------------|----------------|
|-3----------1------3/4/5-|-3-----------1------------|-0--------------|----------------|
|-3----------1------1/2/3-|-3---3-1h3p1-1----3-1h3p1-|-0--------------|----------------|
|-3----------1------------|-3-----------1------------|-0-----(0)------|-(0)----(0)-----|


                                       x3
|-----------------------|----------------|--------------------------------|
|-----------------------|----------------|--------------------------------|
|-----------------------|----------------|--------------------------------|
|-----------------------|-0--------------|--------------------------------|
|-3-1-3-1-3-1-3-1-3-1-3-|-0--------------|-3-1-3-1-3-1-3-1-3-1-3--/5-4-/6-|
|-1-1-1-1-1-1-1-1-1-1-1-|-0--------------|-1-1-1-1-1-1-1-1-1-1-1----------|
  pm...................                    pm...................

|----------------------|------------------------|-----------------------|----------------------|
|----------------------|------------------------|-----------------------|----------------------|
|----------------------|------------------------|-----------------------|----------------------|
|---------7------------|--tr-------7------------|--tr------7------------|-------7-----6-----2--|
|-5~------5----/5-4-/6-|-5(6)------5----/5-4-/6-|-5(6)-----5----/5-4-/6-|-5~----7-----6-----2--|
|-----0----------------|-------0----------------|------0----------------|-----0-7---0-6---0-2--|
                                                                             pm    pm    pm

|---------------------|---------------------|---------------------|-------------------------|
|---------------------|---------------------|---------------------|-------------------------|
|-------3-------------|-------3-------------|-------3-------------|-------------------------|
|-------3-----0-------|-------3-----0-------|-------3-----0-------|-7-7-7-7-7-7-6-----3/4/5-|
|-3p1p0-1-----0-------|-3p1p0-1-----0-------|-3p1p0-1-----0-------|-7-7-7-7-7-7-6-----1/2/3-|
|-------------0-------|-------------0-------|-------------0-------|-7-7-7-7-7-7-6-----------|
                                                                    pm...........

|---------------------|---------------------|---------------------|----------------|
|---------------------|---------------------|---------------------|----------------|
|---------------------|---------------------|---------------------|----------------|
|-----7-5-7---1-------|-----7-5-7---1-------|-----7-5-7---1-------|-0--------------|
|---5-------5-1-------|---5-------5-1-------|---5-------5-1-------|-0--------------|
|-0-----------1-------|-0-----------1-------|-0-----------1-------|-0--------------|
 pm..........          pm..........          pm..........


|-----------------------|-----------------------|----------------------|--------------------|
|-----------------------|-----------------------|----------------------|--------------------|
|-----------------------|-----------------------|----------------------|--------------------|
|-----7-5-7-5h7p5-1-----|-----7-5-7-5h7p5-1-----|-----7-5-7-5h7p5-1----|-0------------------|
|---5-------------1-----|---5-------------1-----|---5-------------1----|-0----------/5-4-/6-|
|-0---------------1-----|-0---------------1-----|-0---------------1----|-0-----/------------|
 pm.........              pm.......              pm........


 Gtr1
|-----------------|-----------------|-----------------|-----------------|
|-----------------|-----------------|-----------------|-----------------|
|-----------------|-----------------|-----------------|-----------------|
|-----------------|-----------------|-----------------|-----------------|
|-----------------|-----------------|-----------------|-----------------|
|-0-0-0-0-0-0-----|-----------------|-0-0-0-0-0-0-----|-----------------|
| pm.........     |                 |pm.........      |                 |
|Gtr2             |                 |                 |                 |
|-----------------|-----------------|-----------------|-----------------|
|-----------------|-----------------|-----------------|-----------------|
|-----------------|-----------------|-----------------|-----------------|
|-----------------|-----------------|-----------------|-----------------|
|-----------------|-----------------|-----------------|-----------------|
|-----------------|-0-0-0-0-0-0-----|-----------------|-0-0-0-0-0-0-----|
                    pm.........                         pm.........

 Gtr1
|------------------|-------------------|-------------------|-------------------|
|------------------|-------------------|-------------------|-------------------|
|------------------|-------------------|-------------------|-------------------|
|-0----------------|-------------------|-0-----------------|-------------------|
|-0----------------|-------------------|-0-----------------|-------------------|
|---0-0-0-0-0-0----|-------------------|---0-0-0-0-0-0-----|-------------------|
|   pm.........    |                   |   pm.........     |                   |
|Gtr2              |                   |                   |                   |
|------------------|-------------------|-------------------|-------------------|
|------------------|-------------------|-------------------|-------------------|
|------------------|-------------------|-------------------|-------------------|
|------------------|-0-----------------|-------------------|-0-----------------|
|------------------|-0-----------------|-------------------|-0-----------------|
|------------------|---0-0-0-0-0-0-----|-------------------|---0-0-0-0-0-0-----|
                       pm.........                             pm.........



|-----------------|-----------------|-----------------|-----------------|
|-----------------|-----------------|-----------------|-----------------|
|-----------------|-----------------|-----------------|-----------------|
|-----------------|-----------------|-----------------|-----------------|
|-----------------|-----------------|-----------------|-----------------|
|-0-0-0-0-0-0-----|-0-0-0-0-0-0-----|-0-0-0-0-0-0-----|-0-0-0-0-0-0-----|
  pm.........      pm.........       pm.........       pm.........


|-------------------|-------------------|-------------------|-------------------|
|-------------------|-------------------|-------------------|-------------------|
|-------------------|-------------------|-------------------|-------------------|
|-0-----------------|-0-----------------|-0-----------------|-0-----------------|
|-0-----------------|-0-----------------|-0-----------------|-0-----------------|
|---0-0-0-0-0-0-----|---0-0-0-0-0-0-----|---0-0-0-0-0-0-----|---0-0-0-0-0-0-----|
    pm.........         pm.........         pm.........         pm.........



|-------------------|-------------------|-------------------|-------------------|
|-------------------|-------------------|-------------------|-------------------|
|-------------------|-------------------|-------------------|-------------------|
|-0--------------7~-|-0--------------6~-|-0--------------5~-|-0--------------2~-|Gtr1
|-0--------------8~-|-0--------------7~-|-0--------------6~-|-0--------------4~-|Gtr2
|---0-0-0-0-0-0-----|---0-0-0-0-0-0-----|---0-0-0-0-0-0-----|---0-0-0-0-0-0-----|
    pm.........         pm.........         pm.........         pm.........



|---------------------|---------------------|---------------------|---------------------|
|---------------------|---------------------|---------------------|---------------------|
|---------------------|---------------------|---------------------|---------------------|
|-0-------------------|-0-------------------|-0-------------------|-0-------------------|
|-0-------------------|-0-------------------|-0-------------------|-0-------------------|
|---0-0-0-0-0-0---0-0-|---0-0-0-0-0-0---0-0-|---0-0-0-0-0-0---0-0-|---0-0-0-0-0-0---0-0-|
    pm.........   pm.     pm.........   pm.     pm.........   pm.     pm.........   pm.



 Gtr1
|---------------------|---------------------|---------------------|---------------------|
|---------------------|---------------------|---------------------|---------------------|
|---------------------|---------------------|---------------------|---------------------|
|-0-------------------|-0-------------------|-0-------------------|-0-------------------|
|-0-------------------|-0-------------------|-0-------------------|-0-------------------|
|---0-0-0-0-0-0---0-0-|---0-0-0-0-0-0---0-0-|---0-0-0-0-0-0---0-0-|---0-0-0-0-0-0---0-0-|
|   pm.........       |   pm.........       |   pm.........       |   pm.........       |
|Gtr2&3               |                     |                     |                     |
|---------------------|---------------------|---------------------|---------------------|
|---------------------|---------------------|---------------------|---------------------|
|---------------------|---------------------|---------------------|---------------------|
|----------------7~---|----------------6~---|----------------5~---|----------------2~---|Gtr2
|----------------8~---|----------------7~---|----------------6~---|----------------4~---|Gtr3
|---------------------|---------------------|---------------------|---------------------|


Gtr1
|---------------------|---------------------|---------------------|---------------------|
|---------------------|---------------------|---------------------|---------------------|
|---------------------|---------------------|---------------------|---------------------|
|-0-------------------|-0-------------------|-0-------------------|-0-------------------|
|-0-------------------|-0-------------------|-0-------------------|-0-------------------|
|---0-0-0-0-0-0---0-0-|---0-0-0-0-0-0---0-0-|---0-0-0-0-0-0---0-0-|---0-0-0-0-0-0---0-0-|
|   pm.........       |   pm.........       |   pm.........       |   pm.........       |
|Gtr2                 |                     |                     |                     |
|---------------------|---------------------|---------------------|---------------------|
|---------------------|---------------------|---------------------|---------------------|
|---------------------|---------------------|---------------------|---------------------|
|---------------------|---------------------|---------------------|---------------------|
|---------------5-----|---------------5-----|---------------5-----|---------------5-----|
|------------------6--|------------------6--|------------------6--|------------------6--|

Dodaj komentarz ...i/lub link do filmiku video

Zaloguj się do serwisu
Ostatnie komentarze
1.
Morgred aep Morgahad vel Maugrim
2011-06-20 03:31
dzięki Ci mistrzu ;D
Wszelkie materiały i wypowiedzi zamieszczone na www.chords.pl są własnością ich autorów.