Zacznij systematycznie uczyć się grać na gitarze razem ze stroną Moja nauka - będziesz miał/miała do niej dostęp po zalogowaniu się w serwisie

Uboju (tab) - Hunter

Opracował -a: Dawid Szymaniec,
Dodał -a: Dawid Szymaniec,
Redaktor: Seba,
Pochodzi z: http://www.chords.pl/
Data publikacji: 2013-10-23 23:13
 
Moja nauka


Ups, problem :-/
Zaloguj się Mój śpiewnik
Hunter Imperium UBOJU

^ - full w dol nie wiedzialem jak to zapisac
/ - slide

Intro:
D|--------------------------------------------------------------------------------------------
A|--------------------------------------------------------------------------------------------
F|--------------------------------------------------------------------------------------------
C|-4-0-0-5-0-0-7-0-0-8-0-0-7-0-5-0-4-0-0-5-0-0-7-0-0-8-0-0-1-0-3-0-4-0-0-5-0-0-7-0-0-8-0-0-7-0
G|--------------------------------------------------------------------------------------------
C|--------------------------------------------------------------------------------------------

D|--------------------------------|
A|--------------------------------|
F|--------------------------------|
C|-5-0-4-0-0-5-0-0-7-0-0-8-0-0-3-5|    4x
G|-----------------------------3-5|
C|-----------------------------3-5|

Przy drugim powtórzeniu dołącza się druga gitara:
D|--------------------------------------------------------------------------------------------
A|--------------------------------------------------------------------------------------------
F|--------------------------------------------------------------------------------------------
C|--------------------------------------------------------------------------------------------
G|--------------------------------------------------------------------------------------------
C|-4-0-0-5-0-0-7-0-0-8-0-0-7-0-5-0-4-0-0-5-0-0-7-0-0-8-0-0-1-0-3-0-4-0-0-5-0-0-7-0-0-8-0-0-7-0

D|--------------------------------|
A|--------------------------------|
F|--------------------------------|
C|-----------------------------3-5|         2x
G|-----------------------------3-5|
C|-5-0-4-0-0-5-0-0-7-0-0-8-0-0-3-5|

Zwrotka:
D|-------------------------------------------------------------------|
A|--------------------------6/8/6------------------------------------|
F|--------------------------5/7/5------------------------------------|
C|----------------------------------------------------------------3-5|    4x
G|---------5-------------------------------5----------------------3-5|
C|3^-0-0-0---0-0-3^-0-0-0-0-------3^-0-0-0---0-0-3^-0-0-0-0-------3-5|

D|--------------------------------|
A|--------------------------------|
F|--------------------------------|
C|--------------------------------|
G|-3-3-3-3-3-3-3-3----------------|
C|-----------------6-6-6-6-3-3-3-3|

Refren:
D|----------------------------------------------------------------------------------------------
A|----------------------------------------------------------------------------------------------
F|----------------------------------------------------------------------------------------------
C|----------------------------------------------------------------------------------------------
G|---------5---------------3-------------5---------------3------------5---------------3---------
C|3^-0-0-0---0-0-5-5-5-5-5---5-3-3-3-3-3---3-3-5-5-5-5-5---5-3^-0-0-0---0-0-5-5-5-5-5---5-3-3-3-

D|-----------------------------|
A|-----------------------------|
F|---------------------2-3-2---|
C|---------------------------3-|             2x
G|-----5-----3-3-3-3-3---------|
C|-3-3---3-3-------------------|

D|------------------------------------------------------------|
A|------------------------------------------------------------|
F|------------------------------------------------------------|
C|-4-0-0-5-0-0-7-0-0-8-0-0-7-0-5-0-4-0-0-5-0-0-7-0-0-8-0-0-3-5|
G|---------------------------------------------------------3-5|
C|---------------------------------------------------------3-5|

Zwrotka:
D|-------------------------------------------------------------------|
A|--------------------------6/8/6------------------------------------|
F|--------------------------5/7/5------------------------------------|
C|----------------------------------------------------------------3-5|    4x
G|---------5-------------------------------5----------------------3-5|
C|3^-0-0-0---0-0-3^-0-0-0-0-------3^-0-0-0---0-0-3^-0-0-0-0-------3-5|

D|--------------------------------|
A|--------------------------------|
F|--------------------------------|
C|--------------------------------|
G|-3-3-3-3-3-3-3-3----------------|
C|-----------------6-6-6-6-3-3-3-3|

D|------------------------------------------|
A|------------------------------------------|
F|------------------------------------------|
C|-0-0--5-5--3-3--5-5--0-0--5-5--3-3-0-1-0-1|         4x
G|-0-0--5-5--3-3--5-5--0-0--5-5--3-3-0-1-0-1|
C|-0-0--5-5--3-3--5-5--0-0--5-5--3-3-0-1-0-1|

D|-------------------------------------------|
A|-------------------------------------------|
F|-------------------------------------------|
C|-0-0--5-5--3-3--5-5-1-0-0--5-5--3-3-0-1-0-1|         4x
G|-0-0--5-5--3-3--5-5-1-0-0--5-5--3-3-0-1-0-1|
C|-0-0--5-5--3-3--5-5-1-0-0--5-5--3-3-0-1-0-1|

Outro
D|--------------------------------------------------------------|
A|--------------------------------------------------------------|
F|--------------------------------------------------------------|
C|-4-0-0-5-0-0-7-0-0-8-0-0-7-0-5-0-4-0-0-5-0-0-7-0-0-8-0-0-3-5-0|
G|---------------------------------------------------------3-5-0|
C|---------------------------------------------------------3-5-0|
Dodał: Dawid Szymaniec, 2013-10-23 23:14
Opracowania video z komentarzy

Dodaj komentarz ...i/lub link do filmiku video

Zaloguj się do serwisu
Wszelkie materiały i wypowiedzi zamieszczone na www.chords.pl są własnością ich autorów.