Zacznij systematycznie uczyć się grać na gitarze razem ze stroną Moja nauka - będziesz miał/miała do niej dostęp po zalogowaniu się w serwisie

T.E.L.I. (tab) - Hunter

Opracował -a: petlica,
Dodał -a: petlica,
Redaktor: petlica,
Pochodzi z: http://www.chords.pl/
Data publikacji: 2013-01-16 11:34
 
Moja nauka


Ups, problem :-/
Zaloguj się Mój śpiewnik
droped-C

  Riff A

  Gtr_1
D|---------------------------------|---------------------------------|
A|---------------------------------|---------------------------------|
F|---------------------------------|---------------------------------|
D|-------------------------------5-|---------------------------------|
G|-----8-----7-----5-----7-----3---|-----8-----7-----5-----7---2-3-2-|
C|-0-7---0-5---0-3---0-5---0-2-----|-0-7---0-5---0-3---0-5---0-2-3-2-|
   pm.   pm.   pm.   pm.   pm...     pm.   pm.   pm.   pm.   pm.....



  Gtr_1
D|---------------------------------|---------------------------------|
A|---------------------------------|---------------------------------|
F|---------------------------------|---------------------------------|
D|-------------------------------5-|---------------------------------|
G|-----8-----7-----5-----7-----3---|-----8-----7-----5-----7---2-3-2-|
C|-0-7---0-5---0-3---0-5---0-2-----|-0-7---0-5---0-3---0-5---0-2-3-2-|
 | pm.   pm.   pm.   pm.   pm...   | pm.   pm.   pm.   pm.   pm...   |
 |                                 |                                 |
 |Gtr_2                            |                                 |
D|---------------------------------|---------------------------------|
A|---------------------------------|---------------------------------|
F|---------------------------------|---------------------------------|
D|-3-------2-------0-------2-------|-3-------2-------0-------2-------|
G|-3-------2-------0-------2-------|-3-------2-------0-------2---3-2-|
C|-3-------2-------0-------2-------|-3-------2-------0-------2---3-2-|


  Verse
  Gtr_1
D|-1---------|-0---------|-5p3---3----3-|-1-----1p0----|
A|-3---------|-3---------|-3--------3---|-3----------3-|
F|-2---------|-3---------|-3------------|-2------------|
D|-0---------|-0---------|-0------------|-0------------|
G|-----------|-----------|--------------|--------------|
C|-----------|-----------|--------------|--------------|


D|-1---------|-0---------|-5p3---3----3-|-2------------|
A|-3---------|-3---------|-3--------3---|-3------------|
F|-2---------|-3---------|-3------------|-2------------|
D|-0---------|-0---------|-0------------|-0------------|
G|-----------|-----------|--------------|--------------|
C|-----------|-----------|--------------|--------------|


  Gtr_2                                                         x2
D|-------------------------------|-------------------------------|
A|-------------------------------|-------------------------------|
F|-------------------------------|-------------------------------|
D|-------------------------------|-------------------------------|
G|-5---5------5---5------5---5---|-5---5------5---5------5---5---|
C|---0---0------0---0------0---0-|---0---0------0---0------0---0-|



  Riff B
D|-----------------------------------|-------------------------------|
A|-10-10-10-10-------/------/-----/--|---------/-----/-----/---/---/-|
F|--9--9--9--9------/------/-----/---|--------/-----/-----/---/---/--|
D|--7--7--7--7-----/------/-----/----|-------/-----/-----/---/---/---|
G|--7--7--7--7----/------/-----/-----|------/-----/-----/---/---/----|
C|--7--7--7--7-----------------------|-------------------------------|



  Ref                                                           x2
D|------------5--|------------5--|---------------|----------------|
A|------------8--|------------8--|------------3--|----------------|
F|-7----------7--|-7----------7--|------------6--|-7--------------|
D|-7-----3----5--|-7-----3----5--|-3----------5--|-7-----3--------|
G|-5--0--3--5-5--|-5--0--3--5-5--|-3--------3----|-5--0--3--5-3-2-|
C|----0--3--5----|----0--3--5----|-3--------3----|----0--3--5-3-2-|
     pm    pm        pm    pm              pm        pm     pm...


                                                   x2
D|-------------------------|-------------------------|
A|-------------------------|-------------------------|
F|-------------------------|-------------------------|
D|-------------------------|-------------------------|
G|-0-2-3-0-2-3-0-----------|-0-2-3-0-2-3-0-----------|
C|-0-2-3-0-2-3-0-----------|-0-2-3-0-2-3-0-----------|
   pm...........             pm...........


  Bridge
D|---------------------------------|---------------------------------|
A|---------------------------------|---------------------------------|
F|---------------------------------|---------------------------------|
D|---------------------------------|---------------------------------|
G|-5---5---5---5---5---5---5---5---|-8---8---8---8---8---8---8---8---|
C|---0---0---0---0---0---0---0---0-|---0---0---0---0---0---0---0---0-|


D|---------------------------------|---------------------------------|
A|---------------------------------|---------------------------------|
F|---------------------------------|---------------------------------|
D|---------------------------------|---------------------------------|
G|-7---7---7---7---7---7---7---7---|-4---4---4---4-------------------|
C|---0---0---0---0---0---0---0---0-|---0---0---0---0-----------------|



  Riff C                                                       x2
D|-------------------------------|-------------------------------|
A|-------------------------------|-------------------------------|
F|-------------------------------|-------------------------------|
D|-------------------------------|-------------------------------|
G|-5---5------5---5------5---5---|-5---5------5---5------5---5---|
C|---0---0------0---0------0---0-|---0---0------0---0------0---0-|


D|-------------------------------|-------------------------------|
A|-------------------------------|-------------------------------|
F|-------------------------------|-------------------------------|
D|-------------------------------|-------------------------------|
G|-5---5------5---5------5---5---|-8---8------8---8------8---8---|
C|---0---0------0---0------0---0-|---0---0------0---0------0---0-|


D|-------------------------------|-------------------------------|
A|-------------------------------|-------------------------------|
F|-------------------------------|-------------------------------|
D|-------------------------------|-5---5------5---5------5---5---|
G|-7---7------7---7------7---7---|-4---4------4---4------4---4---|
C|---0---0------0---0------0---0-|---0---0------0---0------0---0-|

pozdr
petlica

Dodaj komentarz ...i/lub link do filmiku video

Zaloguj się do serwisu
Wszelkie materiały i wypowiedzi zamieszczone na www.chords.pl są własnością ich autorów.