Zacznij systematycznie uczyć się grać na gitarze razem ze stroną Moja nauka - będziesz miał/miała do niej dostęp po zalogowaniu się w serwisie

Dwie siekiery (tab) - Hunter

Opracował -a: petlica,
Dodał -a: petlica,
Redaktor: petlica,
Pochodzi z: http://www.chords.pl/
Data publikacji: 2013-01-16 11:35
 
Moja nauka


Ups, problem :-/
Zaloguj się Mój śpiewnik
 Intro
D|-----------------|-----------------|-----------------|-----------------|
A|-----------------|-----------------|-----------------|-----------------|
F|-----------------|-----------------|-----------------|-----------------|
C|---0-------------|---0-------------|---0-------------|---0-------------|
G|---------1--0----|---------1--0----|---------1--0----|---------1--0----|
C|-0----0--------3-|-0----0--------3-|-0----0--------3-|-0----0--------3-|
  pm.....................................................................


  Riff A                                 x2
D|--------------------|--------------------|
A|---3----------------|---3----------------|
F|---2-------3--2-----|---2-------3--2-----|
C|---0-------3--2-----|---0-------3--2-----|
G|---0-------1--0-----|---0-------1--0-----|
C|-0-0----0--------3~-|-0-0----0--------3~-|
  pm     pm           pm     pm


  Verse                                                         x2
D|------------------------|-------------------|-------------------|
A|-3------1---------------|---3---------------|---3---------------|
F|-2------0-----3---2-----|---2------3--2-----|---2------3--2-----|
C|-0------2-----3---2-----|---0------3--2-----|---0------3--2-----|
G|-0------3-----1---0-----|---0------1--0-----|---0------1--0-----|
C|-0------------------3~--|-0-0---0--------3~-|-0-0---0--------3~-|
                           pm    pm            pm    pm


D|------------------------|-------------------|-------------------|
A|-3------1---------------|---3---------------|---3---------------|
F|-2------0-----3---2-----|---2------3--2-----|---2------3--------|
C|-0------2-----3---2-----|---0------3--2-----|---0------3--------|
G|-0------3-----1---0-----|---0------1--0-----|---0------1--------|
C|-0------------------3~--|-0-0---0--------3~-|-0-0---0-----------|
                           pm    pm            pm    pm

D|-----------------|-----------------|-------------------|---------------|
A|-----------------|-----------------|---3---------------|---3-----------|
F|-----------------|-----------------|---2------3--2-----|---2------3----|
C|-5---------------|-5-------2-------|---0------3--2-----|---0------3----|
G|-3-3-3-3-3-3-3-3-|-3-3-3-3-0-0-0-0-|---0------1--0-----|---0------1----|
C|-----------------|-----------------|-0-0---0--------3~-|-0-0---0-------|
  pm................................. pm    pm            pm    pm


D|-----------------|-----------------|-------------------|-------------------|
A|-----------------|-----------------|---3---------------|---3---------------|
F|-----------------|-----------------|---2------3--2-----|---2------3--2-----|
C|-5---------------|-5-------2-------|---0------3--2-----|---0------3--2-----|
G|-3-3-3-3-3-3-3-3-|-3-3-3-3-0-0-0-0-|---0------1--0-----|---0------1--0-----|
C|-----------------|-----------------|-0-0---0--------3~-|-0-0---0--------3~-|
  pm................................  pm    pm            pm    pm


  Ref                                    x2
D|--------------------|--------------------|
A|-3------------------|-3------------------|
F|-2--5---------------|-2--5---------------|
C|-0--5----3---5--6-7-|-0--5----3---3--5-6-|
G|-0--3----3---5--6-7-|-0--3----3---3--5-6-|
C|-0-------3---5--6-7-|-0-------3---3--5-6-|



D|---------------------------|---------------------------|
A|---------------------------|---------------------------|
F|-2-------------------------|-2-------------------------|
C|-2-------------3---3---3---|-2-------------3---3---3---|
G|-0-0-0-0-0-0-0-0h1-0h1-0h1-|-0-0-0-0-0-0-0-0h1-0h1-0h1-|
C|---------------------------|---------------------------|
     pm.........                 pm.........

D|-----------------------------|--------------------------|
A|-----------------------------|--------------------------|
F|-2-------------3-------------|-4---------------5----6---|
C|-2-------------3-------------|-4---------------5----6---|
G|-0-0-0-0-0-0-0-1-1-1-1-1-1-1-|-2-2-2-2-2-2-2-2-3----4---|
C|-----------------------------|--------------------------|
     pm.........   pm.........    pm............


D|-------------------|-------------------|-------------------|-------|
A|---3---------------|---3---------------|---3---------------|-------|
F|---2------3--2-----|---2------3--2-----|---2------2--------|-------|
C|---0------3--2-----|---0------3--2-----|---0------1--------|-------|
G|---0------1--0-----|---0------1--0-----|---0------0--------|-------|
C|-0-0----0-------3~-|-0-0----0-------3~-|-0-0----0----------|-------|
  pm     pm           pm     pm           pm     pm



Riff B
                                     x3
D|-------------------------------------|-------------------------------------|
A|-------------------------------------|-------------------------------------|
F|-7-----------------------------------|-7-----------------------------------|
C|-6-----------------------------------|-6-----------------------------------|
G|-5-----------------------------------|-5-----------------------------------|
C|---0-0-0--0-0-0--0-0-0--0-0-0--0-0-0-|---0-0-0--0-0-0--0-0-0--0-0-0--------|



D|-------------------------------------|-------------------------------------|
A|-------------------------------------|-------------------------------------|
F|-------------------------------------|-------------------------------------|
C|-7-----------------------------------|-7-----------------------------------|
G|-5-----------------------------------|-4-----------------------------------|
C|---0-0-0--0-0-0--0-0-0--0-0-0--0-0-0-|---0-0-0--0-0-0--0-0-0--0-0-0--0-0-0-|

D|-------------------------------------|--------------------------------|
A|-------------------------------------|--------------------------------|
F|-------------------------------------|--------------------------------|
C|-5-----------------------------------|-5---------------3--------------|
G|-3-----------------------------------|-2---------------1--------------|
C|---0-0-0--0-0-0--0-0-0--0-0-0--0-0-0-|---0-0-0--0-0-0----0-0-0--0-0-0-|

D|-------------------------------------|-------------------------------------|
A|-------------------------------------|-------------------------------------|
F|-7-----------------------------------|-7-----------------------------------|
C|-6-----------------------------------|-6-----------------------------------|
G|-5-----------------------------------|-5-----------------------------------|
C|---0-0-0--0-0-0--0-0-0--0-0-0--0-0-0-|---0-0-0--0-0-0--0-0-0--0-0-0--0-0-0-|




D|-------------------------------------|-------------------------------------|
A|-------------------------------------|-------------------------------------|
F|-------------------------------------|-------------------------------------|
C|-7-----------------------------------|-5-----------------------------------|
G|-5-----------------------------------|-3-----------------------------------|
C|---0-0-0--0-0-0--0-0-0--0-0-0--0-0-0-|---0-0-0--0-0-0--0-0-0--0-0-0--0-0-0-|

D|-------------------------------------|-------------------------------------|
A|-------------------------------------|-------------------------------------|
F|-------------------------------------|-------------------------------------|
C|-5-----------------------------------|-3-----------------------------------|
G|-2-----------------------------------|-1-----------------------------------|
C|---0-0-0--0-0-0--0-0-0--0-0-0--0-0-0-|---0-0-0--0-0-0--0-0-0--0-0-0--0-0-0-|

D|-------------------------------------|-------------------------------------|
A|-------------------------------------|-------------------------------------|
F|-------------------------------------|-------------------------------------|
C|-7-----------------------------------|-7-----------------------------------|
G|-5-----------------------------------|-5-----------------------------------|
C|---0-0-0--0-0-0--0-0-0--0-0-0--0-0-0-|---0-0-0--0-0-0--0-0-0--0-0-0--0-0-0-|





D||-------------------------------------|-------------------------------------|
A||-------------------------------------|-------------------------------------|
F||-------------------------------------|-------------------------------------|
C||-7-----------------------------------|-7-----------------------------------|
G||-5-----------------------------------|-4-----------------------------------|
C||---0-0-0--0-0-0--0-0-0--0-0-0--0-0-0-|---0-0-0--0-0-0--0-0-0--0-0-0--0-0-0-|

                                                                           x2
D|-------------------------------------|-------------------------------------||
A|-------------------------------------|-------------------------------------||
F|-------------------------------------|-------------------------------------||
C|-5-----------------------------------|-5-----------------------------------||
G|-3-----------------------------------|-2-----------------------------------||
C|---0-0-0--0-0-0--0-0-0--0-0-0--0-0-0-|---0-0-0--0-0-0--0-0-0--0-0-0--0-0-0-||


  Riff D
D|---------------|---------------------|
A|---------------|---------------------|
F|---------------|---------------------|
C|-7-7-7---5-3-2-|---------------------|
G|-7-6-5---5-3-2-|-0---------0---------|
C|-7-6-5---5-3-2-|-0-0-0-0-0-0-0-0-0-0-|
                     p......   pm.....

D|------------------|-------------------|-------------------|
A|------------------|---3---------------|---3---------------|
F|------------------|---2------3--2-----|---2------3--2-----|
C|-7-6-5------------|---0------3--2-----|---0------3--2-----|
G|-7-6-5------5-3-2-|---0------1--0-----|---0------1--0-----|
C|-7-6-5------5-3-2-|-0-0---0--------3~-|-0-0---0--------3~-|
             pm....  pm    pm            pm    pm

End
                                       x3
D|-------------------|-------------------||--------------------|
A|---3---------------|---3---------------||---3----------------|
F|---2------3--2-----|---2------2--------||---2----------------|
C|---0------3--2-----|---0------1--------||---0----3--2--------|
G|---0------1--0-----|---0------0--------||---0----1--0-----0--|
C|-0-0----0-------3~-|-0-0----0----------||-0-0----------3--0--|
  pm     pm           pm     pm            pm..................


pozdr
petlica

Dodaj komentarz ...i/lub link do filmiku video

Zaloguj się do serwisu
Ostatnie komentarze
1.
drd
2013-05-23 20:15
Suuuuupeeeer !! Dzięki !! Nie mogę przestać grać. xDD
Wszelkie materiały i wypowiedzi zamieszczone na www.chords.pl są własnością ich autorów.