Zacznij systematycznie uczyć się grać na gitarze razem ze stroną Moja nauka - będziesz miał/miała do niej dostęp po zalogowaniu się w serwisie

Trumian Show - Hunter

Opracował -a: petlica,
Dodał -a: petlica,
Redaktor: petlica,
Pochodzi z: http://www.chords.pl/
Data publikacji: 2013-01-17 08:31
 
Moja nauka


Ups, problem :-/
Zaloguj się Mój śpiewnik
drop-C

Intro
D|--------------|--------------|--------------|--------------|
A|-3---3--------|-3---3--------|-3---3--------|-3---3--------|
F|-0h2----------|-0h2----------|-0h2----------|-0h2----------|
C|-0------0---0-|-0------0---0-|-0------0---0-|-0------0---0-|
G|--------------|--------------|--------------|--------------|
C|--------------|--------------|--------------|--------------|
         pm....         pm....         pm....         pm....



  Verse 1st
D|--------------|--------------|--------------|--------------|
A|-3---3--------|-3---3--------|-3---3--------|-3---3--------|
F|-0h2----------|-0h2----------|-0h2----------|-0h2----------|
C|-0------0---0-|-0------0---0-|-0------0---0-|-0------0---0-|
G|--------------|--------------|--------------|--------------|
C|--------------|--------------|--------------|--------------|
         pm....         pm....         pm....         pm....

                                                           x2
D|--------------|--------------|--------------|--------------|
A|-3---3--------|-3---3--------|-3---3--------|-3---3--------|
F|-0h3----------|-0h3----------|-0h2----------|-0h2----------|
C|-0------0---0-|-0------0---0-|-0------0---0-|-0------0---0-|
G|--------------|--------------|--------------|--------------|
C|--------------|--------------|--------------|--------------|
         pm....         pm....         pm....         pm....


D|------------------------------------------------------|
A|-----------------------------------------3---3--------|
F|---3-3-3-3---3-3-2-2-2-------------------0h2----------|
C|-2-3-3-3-3---3-3-2-2-2----------------3--0------0-2-3-|
G|-0-1-1-1-1---1-1-0-0-0--0-4p0-0-4p0-0-----------------|
C|------------------------------------------------------|

D|--------------------------|
A|-------3-2---2------------|
F|-3-3-3-3-2---2------------|
C|-3-3-3-3-2-5-2------------|
G|-1-1-1-1-0-5-0------------|
C|-----------5--------------|



  Guitar_1
D|--------------|--------------|--------------|--------------|
A|-3---3--------|-3---3--------|-3---3--------|-3---3--------|
F|-0h2----------|-0h2----------|-0h2----------|-0h2----------|
C|-0------0---0-|-0------0---0-|-0------0---0-|-0------0---0-|
G|--------------|--------------|--------------|--------------|
C|--------------|--------------|--------------|--------------|
 |       pm.... |       pm.... |       pm.... |       pm.... |
 |              |              |              |              |
 |Guitar_2      |              |              |              |
D|--------------|--------------|--------------|--------------|
A|--------3---3-|--------3---3-|--------3---3-|--------3---3-|
F|--------0h2---|--------0h2---|--------0h2---|--------0h2---|
C|--------0-----|--------0-----|--------0-----|--------0-----|
G|--------------|--------------|--------------|--------------|
C|--------------|--------------|--------------|--------------|



D|--------------|--------------|--------------|---------------|
A|-3---3--------|-3---3--------|-3---3--------|-3---3---------|
F|-0h2----------|-0h2----------|-0h2----------|-0h2-----------|
C|-0------0---0-|-0------0---0-|-0------0---0-|-0------0-/3\2-|
G|--------0---0-|--------0---0-|--------0---0-|--------0-/3\2-|
C|--------0---0-|--------0---0-|--------0---0-|--------0-/3\2-|
         pm....         pm....         pm....         pm.


  Verse 2nd
D||--------------|--------------|--------------|--------------|
A||-3---3--------|-3---3--------|-3---3--------|-3---3--------|
F||-0h2----------|-0h2----------|-0h2----------|-0h2----------|
C||-0------0---0-|-0------0---0-|-0------0---0-|-0------0---0-|
G||--------0---0-|--------0---0-|--------0---0-|--------0---0-|
C||--------0---0-|--------0---0-|--------0---0-|--------0---0-|
         pm....         pm....         pm....         pm....

                                               1............. 2.............
D|--------------|--------------|--------------|--------------|--------------|
A|-3---3--------|-3---3--------|-3---3--------|---6-8----8-9-|--10-9----8-6-|
F|-0h3----------|-0h3----------|-0h2----------|---5-7----7-8-|---9-8----8-5-|
C|-0------0---0-|-0------0---0-|-0------0---0-|---3-5----5-6-|---7-6----6-3-|
G|--------0---0-|--------0---0-|--------0---0-|-0-3-5--0-5-6-|-0-7-6--0-6-3-|
C|--------0---0-|--------0---0-|--------0---0-|-0-3-5--0-5-6-|-0-7-6--0-6-3-|
         pm....         pm....         pm....  pm     pm      pm     pm


  Pre-Ref 1st
D|--------------------------------------------------|
A|--------------------------------------------------|
F|---3-3-3-3---3-3-2-2-2--------2-2-----------------|
C|---3-3-3-3---3-3-2-2-2--------2-2-----0-----------|
G|-0-1-1-1-1---1-1-0-0-0--0-4p0-0-0-3-2-0-----0-2-3-|
C|----------------------------------3-2-0-----0-2-3-|
                                    pm.       pm...

D|--------------------------------------------------|
A|--------------------------------------------------|
F|---3-3-3-3---3-3-2-2-2----------------------------|
C|---3-3-3-3---3-3-2-2-2--0---0-2---0-3---0-5--7----|
G|-0-1-1-1-1---1-1-0-0-0--0---0-2---0-3---0-5--7----|
C|------------------------0---0-2---0-3---0-5--7----|
                             pm    pm

D|--------------------------------------------------|
A|--------------------------------------------------|
F|---3-3-3-3---3-3-2-2-2----2-2-2-2-----------------|
C|---3-3-3-3---3-3-2-2-2----2-2-2-2-----0-----------|
G|-0-1-1-1-1---1-1-0-0-0----0-0-0-0-3-2-0-----0-2-3-|
C|----------------------------------3-2-0-----0-2-3-|
                                    pm.       pm...

D|--------------------------|
A|-------3-2---2------------|
F|-3-3-3-3-2---2------------|
C|-3-3-3-3-2-5-2--------3-2-|
G|-1-1-1-1-0-5-0--------3-2-|
C|-----------5----------3-2-|
                        pm.

  Ref
D|------1-------------------------------------|
A|------3------6-6-6-6-6-5-5-5----------------|
F|------2------5-5-5-5-5-4-4-4----------------|
D|-0----0-------------------------2-3-----3-2-|
G|-0------------------------------2-3-----3-2-|
C|-0----------------------------0-2-3---0-3-2-|
                               pm      pm

D|------1-------------------------------------|
A|------3------6-6-6-6-6-5-5-5-----6-8----8-11|
F|------2------5-5-5-5-5-4-4-4-----5-7----7-10|
D|-0----0--------------------------3-5----5-8-|
G|-0-----------------------------0-3-5--0-5-8-|
C|-0-----------------------------0-3-5--0-5-8-|
                                pm     pm

D|------1-------------------------------------|
A|------3------6-6-6-6-6-5-5-5----------------|
F|------2------5-5-5-5-5-4-4-4----------------|
D|-0----0-------------------------------------|
G|-0--------------------------------2/3-5-3-2-|
C|-0------------------------------0-2/3-5-3-2-|
                                 pm     pm...

D|------1---------------------------------------|
A|------3------6-6-6-6-6-5-5-5----10-9----8\9---|
F|------2------5-5-5-5-5-4-4-4-----9-8----7\8---|
D|-0----0--------------------------7-6----6\5---|
G|-0-------------------------------7-6----6\5-3-|
C|-0-----------------------------0-7-6--0-6\5-3-|
                                pm     pm    pm

 Riff A
E|----13----13----13----13----13----13-13/12----12-|
H|-13----13----13----13----13----13----------12----|
G|-------------------------------------------------|
D|-------------------------------------------------|
A|-------------------------------------------------|
E|-------------------------------------------------|


E|----11----11----11----11----11----11-11/10----10-|
H|-11----11----11----11----11----11----------10----|
G|-------------------------------------------------|
D|-------------------------------------------------|
A|-------------------------------------------------|
E|-------------------------------------------------|

  Verse 3rd
D||--------------|--------------|--------------|--------------|
A||-3---3--------|-3---3--------|-3---3--------|-3---3--------|
F||-0h2----------|-0h2----------|-0h2----------|-0h2----------|
C||-0------0---0-|-0------0---0-|-0------0---0-|-0------0---0-|
G||--------0---0-|--------0---0-|--------0---0-|--------0---0-|
C||--------0---0-|--------0---0-|--------0---0-|--------0---0-|
         pm....         pm....         pm....         pm....


D|--------------|----------------|
A|-3---3--------|-3---3----------|
F|-0h3----------|-0h3------------|
C|-0------0---0-|-0------0-------|
G|--------0---0-|--------0-2/3\2-|
C|--------0---0-|--------0-2/3\2-|
         pm....         pm


  1........................... 2.........................
D|----------------------------|--------------------------|
A|----------------------------|--------------------------|
F|----------------------------|--------------------------|
C|---2-3----3-5----5-6----6-7-|---7-6----6-3---3-2---2-3-|
G|-0-2-3--0-3-5--0-5-6--0-6-7-|-0-7-6--0-6-3-0-3-2-0-2-3-|
C|-0-2-3--0-3-5--0-5-6--0-6-7-|-0-7-6--0-6-3-0-3-2-0-2-3-|
  pm     pm     pm     pm      pm     pm     pm   pm


  Pre-Ref 2nd
D|--------------------------------------------------|
A|--------------------------------------------------|
F|---3-3-3-3---3-3-2-2-2--------2-2-----------------|
C|---3-3-3-3---3-3-2-2-2--------2-2-----0-----------|
G|-0-1-1-1-1---1-1-0-0-0--0-4p0-0-0-3-2-0-----0-2-3-|
C|----------------------------------3-2-0-----0-2-3-|
                                    pm.       pm...

D|--------------------------------------------------|
A|--------------------------------------------------|
F|---3-3-3-3---3-3-5-5-5--7-----9----11----12--14---|
C|---3-3-3-3---3-3-5-5-5--7-----9----11----12--14---|
G|-0-1-1-1-1---1-1-3-3-3--5-----7-----9----10--12---|
C|----------------------------0----0-----0----------|
                             pm    pm

D|--------------------------------------------------|
A|--------------------------------------------------|
F|---3-3-3-3---3-3-2-2-2----2-2-2-2-----------------|
C|---3-3-3-3---3-3-2-2-2----2-2-2-2-----0-----------|
G|-0-1-1-1-1---1-1-0-0-0----0-0-0-0-3-2-0-----0-2-3-|
C|----------------------------------3-2-0-----0-2-3-|
                                    pm.       pm...

D|--------------------------|
A|-------3-2---2------------|
F|-3-3-3-3-2---2------------|
C|-3-3-3-3-2-5-2--------3-2-|
G|-1-1-1-1-0-5-0--------3-2-|
C|-----------5----------3-2-|
                        pm.

pozdr
petlica
Dodał: Mrmrok, 2013-01-17 15:08
Opracowania video z komentarzy

Dodaj komentarz ...i/lub link do filmiku video

Zaloguj się do serwisu
Wszelkie materiały i wypowiedzi zamieszczone na www.chords.pl są własnością ich autorów.