Zacznij systematycznie uczyć się grać na gitarze razem ze stroną Moja nauka - będziesz miał/miała do niej dostęp po zalogowaniu się w serwisie

Pizzicato Asceticism (tab) - Hunter

Opracował -a: rybazmarsa88,
Dodał -a: rybazmarsa88,
Redaktor: Tomek Pietrzkowski,
Data publikacji: 2010-05-26 08:42
 
Moja nauka


Ups, problem :-/
Zaloguj się Mój śpiewnik
wstęp:

Jeżeli chcemy by brzmiało jak w intro nie wolno tłumić
struny A5, niech dźwięk trwa, za każdym razem uderzamy ciszej..

--------------------------------------------------------
--------------------------------------------------------
--------------------------------------------------------
---12n.h---12n.h--12n.h--12n.h--------------------------
-10------10-----10-----10-------------------------------
--------------------------------------------------------

podobnie tutaj, nie tłuminy, stopniowo wyciszamy..
(gramy ten frag. 8 razy )

--------------------------------------------------------
--------12n.h-------12n.h-------12n.h-------------------
--------------------------------------------------------
---12n.h-------12n.h-------12n.h------------------------
-10----------10----------10-----------------------------
--------------------------------------------------------

28 s. wchodzą skrzypce:

           bardzo cicho zjeżdżamy do 0
---------------------s15--------------------------------
-15~~-13~~-11~~s0---------------------------------------
--------------------------------------------------------
--------------------------------------------------------
--------------------------------------------------------
--------------------------------------------------------

------13~~----------------------------------------------
-15~~------11~~-------15~~-13~~-11~~---6s8~~------------
--------------------------------------------------------
--------------------------------------------------------
--------------------------------------------------------
--------------------------------------------------------

---------------------------------------------------------
----------------------------------11-15-(-11-15-)--------
------------------------12--12-14------------------------
-12~~-12s13~~-(-13-13-)----------------------------------
---------------------------------------------------------
---------------------------------------------------------

--15~~------------------------------------------------------
------15~~----15~~------------------------------------------
----------15~~----15~~--------------------------------------
-----------------------17~~---------------------------------
------------------------------------------------------------
------------------------------------------------------------

1:24s
-------------15-17-15-(-17-15-17-15-)---------------------------
-----------15-------------------------15~~-13~~--11s13s11-------
---12-14-15----------------------------------------------12~~---
-12----------------------------------------------------------12-
----------------------------------------------------------------
----------------------------------------------------------------

--------------------------------------------------------
--------------------------------------------------------
--------------------------------------------------------
--------------------------------------------------------
--10~~-13~~--13--12~~-(-12~~-)--------------------------
--------------------------------------------------------

1:47 s
-------------------------------------------15------------------------
----------------------------------------15---15----------------------
------------------(-12-12-12-)-----12-15-------15--15s12-(-12~~-)----
---------------------------------12----------------------------------
--10--13--13p10-13---10----------------------------------------------
---------------------------------------------------------------------

1:59s:
----------------------------------------------s22a.h-(-22~~-)-------
---------------------11-10--11p10-----------------------------------
-12~~-12~~--10--10----------------10~~-(-10-)-----------------------
--------------12----------------------------------------------------
--------------------------------------------------------------------
--------------------------------------------------------------------

-----------15~~---15-17-17s18~~-15-----------------------------
---------15-----15-----------------15--------------------------
-15-14-15----------------------------15--15--------------------
---------------------------------------17--17~~----------------
---------------------------------------------------------------
---------------------------------------------------------------

2:21s
--------------------------------------------------------
-----------15-(-15--15--15--)-15~~--13~~--11~~-10-8~~---
---12-14-15-------15--15--15----------------------------
-12-----------------------------------------------------
--------------------------------------------------------
--------------------------------------------------------

--------------------------------------------------------
--------------------------------------------------------
--------------------12~~---------15-15~~14--------------
-15~~--15p13~~--12---------15-17-----------(-12-)-------
--------------------------------------------------------
--------------------------------------------------------

2:53s:                            |-3 razy--|
--------------------------------------------------------
-----------------------------15~~-(-13h15-15-)----------
-----------------12~~-----------------------------------
----12~~--12s15-----------------------------------------
--12----------------------------------------------------
--------------------------------------------------------

-----------------------------------15~~---------------------
--15--13h15-15-15~~----------15~~---------------------------
-----------------------14-15-----------14-15--14-15-14~~----
------------------------------------------------------------
------------------------------------------------------------
------------------------------------------------------------

----------------------------------------13~~-13p12--13~~----
--15~~-15p13-15~~--------15~~-15p13-15~~--------------------
------------------------------------------------------------
------------------------------------------------------------
------------------------------------------------------------
------------------------------------------------------------

----------------------------------------------------------
--15~~-15p13-15--11~~-11p10-11----15p13-15-11p10-11-8p6-8-
----------------------------------------------------------
----------------------------------------------------------
----------------------------------------------------------
----------------------------------------------------------

zakończenie ( w tle i na końcu gramy wstęp )
--------------------------------------------------------
--------------------------------------------------------
--------------------------------------------------------
-(-13-12-13-12-13-12-13-12~~-)--------------------------
-----------------------------------10~~-----------------
--------------------------------------------------------

Dodaj komentarz ...i/lub link do filmiku video

Zaloguj się do serwisu
Wszelkie materiały i wypowiedzi zamieszczone na www.chords.pl są własnością ich autorów.