Zacznij systematycznie uczyć się grać na gitarze razem ze stroną Moja nauka - będziesz miał/miała do niej dostęp po zalogowaniu się w serwisie

Misery (tab) - Hunter

Opracował -a: rybazmarsa88,
Dodał -a: rybazmarsa88,
Redaktor: Tomek Pietrzkowski,
Data publikacji: 2010-06-03 10:10
 
Moja nauka


Ups, problem :-/
Zaloguj się Mój śpiewnik
intro                ||---------------2 razy------------||
-----------------------------------------------------------------
-----------------------------------------------------------------
-----------------------------------------------------------------
-------2--------2------------------------------------------------
-------2------2-2------------------------------------------------
-1s8s1-0------0-0-----0-0-7-00-7-777-6-0-00-7-00-7-77-7-6--------

||----2 razy-----|| ||----3 razy----||
-----------------------------------------------------------------
-----------------------------------------------------------------
-----------------------------------------------------------------
-----------------------------------------------------------------
-----------------------------------------222-222-----------------
-000-6-00-77-0-66----000-xxxxx-7-7-6-----000-000-----------------

36s:
-----------------------------------------------------------------
-----------------------------------------------------------------
-----------------------------------------------------------------
-----5---------------5-------------------------------------------
-----------------------------------------------------------------
-0-0---0-777-766--0-0--00-77-6-33-5------------------------------

1:01 s:                 Misery..
-----------------------------------------------------------------
-----------------------------------------------------------------
-----------------------------------------------------------------
-----------------------------------------------------------------
------9------9------8--------------------------------------------
-7777-7-7777-7-6666-6--------------------------------------------

1:23
riff z intra + powyższy, riff z intra +
-----------------------------------------------------------------------------
-----------------------------------------------------------------------------
-----------------------------------------------------------------------------
-----------------------------------------------------------------------------
---------------------------------------------9------9-----------9------------
----------------------------------------7777-7-7777-7-0000-7777-7-7777-00-77-

następnie riff z końca intro,

zwrotka, przejście i refren tak samo,

Misery .. 2:37s
-------------------------------------------------------------------
-------------------------------------------------------------------
-------------------------------------------------------------------
----------------------------------------8--------------------------
-------------------------9------9-9-9-0-8--------------------------
-0000-3s5-00003s5-5-7777-7-7777-7-7-7-0-6--------------------------

następnie riff z intro,
akustyczna:
||---------------------2 razy----------||
-----------------------------------------------------------------
-----------------------------------------------------------------
--------3-------4------------------------------------------------
---3-3s4-----4s6------4p3-6-3p0-4-1p0-3-----2--------------------
--1-------2--------2------------------------2--------------------
-----------0--------0-----------------------0--------------------

riff z intro, podczas solo glowny riff,

koniec:
-----------------------------------------------------------------
-----------------------------------------------------------------
-4-4---4-----3---3-----------------------------------------------
-4-4--4-4----3--3-3-----2-2--------------------------------------
-2-2-2---2---1-1---1----2-2--------------------------------------
------------------------0-0--------------------------------------

Dodaj komentarz ...i/lub link do filmiku video

Zaloguj się do serwisu
Wszelkie materiały i wypowiedzi zamieszczone na www.chords.pl są własnością ich autorów.