Zacznij systematycznie uczyć się grać na gitarze razem ze stroną Moja nauka - będziesz miał/miała do niej dostęp po zalogowaniu się w serwisie

Rzeźnia nr6 (tab) - Hunter

Opracował -a: petlica,
Dodał -a: petlica,
Redaktor: petlica,
Pochodzi z: http://www.chords.pl/
Data publikacji: 2013-01-16 11:34
 
Moja nauka


Ups, problem :-/
Zaloguj się Mój śpiewnik
drop-C 

 Intro-Riff A                       x4
D|-----------------------------------|
A|-----------------------------------|
F|------------2---3------------------|
C|-0----------2---3------------------|
G|-0----------0---1------------------|
C|-0--0-0-0-0---0----0-0-0-0-0-0-0-0-|
      pm.....  pm    pm.............



 Verse 1st - Riff B                    x3
D|---------------------------------------|-----------------------------------|
A|---------------------------------------|-----------------------------------|
F|------------2---3----------------------|------------2---3------------------|
C|-0----------2---3----------------------|-0----------2---3------------------|
G|-0----------0---1----------------------|-0----------0---1------------------|
C|-0--0-0-0-0---0----0-0-0-0-0-0-2b(3)r2-|-0--0-0-0-0---0--------------------|
      pm.....  pm    pm..........             pm.....  pm


D|---------------------------------------|-----------------------------------|
A|---------------------------------------|-----------------------------------|
F|------------2---3----------------------|------------2---3------------------|
C|-0----------2---3----------------------|-0----------2---3------------------|
G|-0----------0---1----------------------|-0----------0---1------------------|
C|-0--0-0-0-0---0----0-0-0-0-0-0-2b(3)r2-|-0--0-0-0-0---0----0-0-0-0-0-0-0-0-|
      pm.....  pm    pm..........             pm.....  pm    pm.............


D|---------------------------------------|-----------------------------------|
A|---------------------------------------|-----------------------------------|
F|------------2---3----------------------|------------2---3------------------|
C|-0----------2---3----------------------|-0----------2---3------------------|
G|-0----------0---1----------------------|-0----------0---1------------------|
C|-0--0-0-0-0---0----0-0-0-0-0-0-2b(3)r2-|-0--0-0-0-0---0----0-0-0-0-0-0-3-2-|
      pm.....  pm    pm..........             pm.....  pm    pm.............


Ref                                                    x2
D|----------------------------|----------------------------|
A|-----3----------------------|-----3----------------------|
F|-----2-----2--3-------------|-----2-----2--3-------------|
C|-0---0-----2--3---3---5---7-|-0---0-----2--3---3---5---1-|
G|-0---------0--1---3---5---7-|-0---------0--1---3---5---1-|
C|-0-------0--------3---5---7-|-0-------0--------3---5---1-|
          pm                           pm  


D|-------------------------------------|----------------------------------|
A|-------------------------------------|----------------------------------|
F|-3-3-3-------------------------------|-5-5-5----------------------------|
C|-3-3-3-0-----------------------------|-5-5-5-0--------------------------|
G|-1-1-1-0-----------------------------|-3-3-3-0-------------------2-2-5--|
C|-------0---0-2b(3)r2-0---0-2b(3)r2-0-|-------0---0-2b(3)r2-0---0-2-2-5--|


D|-----------------------------|-----------------------------|
A|-----------------------------|-----------------------------|
F|-7-7-7-----------------------|-7-7-7-----------------------|
C|-7-7-7-0----3---5---7--------|-7-7-7-0----5---3---2--------|
G|-5-5-5-0----3---5---7--------|-5-5-5-0----5---3---2--------|
C|-------0----3---5---7--------|-------0----5---3---2--------|


D|-------------------------------------|----------------------------------|
A|-------------------------------------|----------------------------------|
F|-3-3-3-------------------------------|-5-5-5----------------------------|
C|-3-3-3-0-----------------------------|-5-5-5-0--------------------------|
G|-1-1-1-0-----------------------------|-3-3-3-0-------------------2-2-5--|
C|-------0---0-2b(3)r2-0---0-2b(3)r2-0-|-------0---0-2b(3)r2-0---0-2-2-5--|


Riff 2B 
D|---------------------------------------|-----------------------------------|
A|---------------------------------------|-----------------------------------|
F|------------2---3----------------------|------------2---3------------------|
C|-0----------2---3----------------------|-0----------2---3------------1---1-|
G|-0----------0---1----------------------|-0----------0---1------------1---1-|
C|-0--0-0-0-0---0----0-0-0-0-0-0-2b(3)r2-|-0--0-0-0-0---0----0-0-0-0-0-1---1-|
      pm.....  pm    pm..........             pm.....  pm    pm.......

D|---------------------------------------|-----------------------------------|
A|---------------------------------------|-----------------------------------|
F|------------2---3----------------------|------------2---3------------------|
C|-0----------2---3----------------------|-0----------2---3------------------|
G|-0----------0---1----------------------|-0----------0---1------------------|
C|-0--0-0-0-0---0----0-0-0-0-0-0-2b(3)r2-|-0--0-0-0-0---0----0-0-0-0-0-0-3-2-|
      pm.....  pm    pm..........             pm.....  pm    pm.............


Bridge
  Gtr_1
D|-----------------------------|-----------------------------|
A|-------3---------------------|-------3---------------------|
F|----2-----2--3--(3)~---------|----2-----2--3--(3)b(5)r(3)~-|
C|-0---------------------------|-0---------------------------|
G|-----------------------------|-----------------------------|
C|-----------------------------|-----------------------------|

  Gtr_2
D|-----------------------------|-----------------------------|
A|-----------------------------|-----------------------------|
F|-----------------------------|-----------------------------|
C|-----------------------------|-----------------------------|
G|-----------------------------|-----------------------------|
C|-0-0-------------------------|-0-0-------------------------|

  Gtr_2
D|-----------------|-----------------|
A|-----------------|-----------------|
F|-----------------|-----------------|
C|-----------------|-----------------|
G|-----------------|-----------------|
C|-0-0-0-0-0-0-0-0-|-0-0-0-0-0-0-0-0-|



pozdr
petlica

Dodaj komentarz ...i/lub link do filmiku video

Zaloguj się do serwisu
Ostatnie komentarze
1.
JIMI
2015-12-07 19:20
Aaaa dzięki
2.
petlica
2015-12-05 20:00
b-bend - podciągniecie r-release - opuszczenie Pozd
3.
JIMI
2015-12-05 13:13
Co znaczy to r na tym przejściu bo nie mogę rozgryźć
4.
petlica
2013-10-21 12:10
Owszem. Zmieniłem - pozdr
5.
Kochanek1
2013-10-20 17:39
W stroju zamiast D na 4 strunie powinno byc C
6.
petlica
2013-01-28 09:04
:) Ferie były
7.
rybazmarsa88
2013-01-27 16:28
staaaary!!!! za nowego Huntera i za taby grupy Mech należy Ci się pokojwa nagroda nobla! masz fantastyczny słuch:) dzięki wielkie :) zazdroszczĘ Ci czasu, że to wszystko rozgryzasz:)
Wszelkie materiały i wypowiedzi zamieszczone na www.chords.pl są własnością ich autorów.