Zacznij systematycznie uczyć się grać na gitarze razem ze stroną Moja nauka - będziesz miał/miała do niej dostęp po zalogowaniu się w serwisie

RzeźNicki - Hunter

Opracował -a: rybazmarsa88,
Dodał -a: rybazmarsa88,
Redaktor: Tomek Pietrzkowski,
Pochodzi z: http://www.chords.pl/
Data publikacji: 2016-11-21 08:51
 
Moja nauka


Ups, problem :-/
Zaloguj się Mój śpiewnik
Dropped C

Intro 4x
------15---------15---------------------------------------------------
----12---------12-----------------------------------------------------
----------------------------------------------------------------------
--14------14-15----15--15-15s17s15------------------------------------
----------------------------------------------------------------------
----------------------------------------------------------------------
Zwrotka 8x
---------------------------------------------------------------------
---------------------------------------------------------------------
---0--------0--------------------------------------------------------
---------------------------------------------------------------------
--2-------2----------------------------------------------------------
-1----1-2---2--2-2s4s2-----------------------------------------------
Mostek 2x
----------------------------------------------------------------------
----------------------------------------------------------------------
----------------------------------------------------------------------
--9--------9s12-------------------------------------------------------
---10-7~~------12-10--------------------------------------------------
----------------------------------------------------------------------
Refren 2x
----------------------------------------------------------------------
----------------------------------------------------------------------
----------------------------------------------------------------------
-----12-x-12-12-12-12--10-10-10-10--8-x-------------------------------
-0-x-12-x-12-12-12-12--10-10-10-10--8-x-8-10-8-7----------------------
-0-x-12-x-12-12-12-12--10-10-10-10--8-x-------------------------------
                                        p.m.....

----------------------------------------------------------------------
----------------------------------------------------------------------
----------------------------------------------------------------------
-----12-x-12-12-12-12--10-10-10-10--8-8-8-8-x-7-----------------------
-0-x-12-x-12-12-12-12--10-10-10-10--8-8-8-8-x-7-----------------------
-0-x-12-x-12-12-12-12--10-10-10-10--8-8-8-8-x-7-----------------------

3:43
----------------------------------------------------------------------
----------------------------------------------------------------------
----------------------------------------------------------------------
--0-x-0-x-0-x-0-x-0---------------------------------------------------
--0-x-0-x-0-x-0-x-0---------------------------------------------------
--0-x-0-x-0-x-0-x-0---------------------------------------------------

Po solówce motyw grany na zwrotce, a druga gitara
4x
----------------------------------------------------------------------
----------------------------------------------------------------------
----------------------------------------------------------------------
----------------------------------------------------------------------
-1-x--1-x--1-1-xx-1s2--2-x-2--x-2-x-2s4s2-----------------------------
-1-x--1-x--1-1-xx-1s2--2-x-2--x-2-x-2s4s2-----------------------------

Refren. Narazie bez solowóki

Dodaj komentarz ...i/lub link do filmiku video

Zaloguj się do serwisu
Wszelkie materiały i wypowiedzi zamieszczone na www.chords.pl są własnością ich autorów.