Zacznij systematycznie uczyć się grać na gitarze razem ze stroną Moja nauka - będziesz miał/miała do niej dostęp po zalogowaniu się w serwisie

Reqieum PL (solo) - Hunter

Opracował -a: rybazmarsa88,
Dodał -a: rybazmarsa88,
Redaktor: Seba,
Data publikacji: 2011-01-29 18:00
 
Moja nauka


Ups, problem :-/
Zaloguj się Mój śpiewnik
solo
E---------------17/-17/\--15s17---------------------------------------------------------------------
H---17-17-19-20----------------------------------20------19------17------19------16----------------
G-16-----------------------------17-16------17p16---16p14---14p12---12h14---12p11---------------------
D--------------------------------------17-----------------------------------------------------------
A-------------------------------------------------------------------------------------------------
E-------------------------------------------------------------------------------------------------

E-15-14----14-12----12-10---10-8----8-7--7-5--5-3--3-2--2-0---0--------------------------------------------
H-------17-------15-------13-----12----10----8----7----5----3---3-1--3-1---1--------------------------------
G------------------------------------------------------------------------4--4-2--4-2-1-2-1------------
D-------------------------------------------------------------------------------------------2-4---------
A-------------------------------------------------------------------------------------------------
E-------------------------------------------------------------------------------------------------

E----------------------------12--12-15------------------15-19-15-----------13-17---------12-15-12-------13-15-13---12~~------
H--------------------11----11--11--------------------15---------15-------13------13----12-------12----12--------12--------
G----4h5p4--------8-9--9--9-----------------------16-------------------14-------------12------------11----------------
D-4-6-----7--6-7-9--------------------------------------------------------------------------------------
A-------------------------------------------------------------------------------------------------
E-------------------------------------------------------------------------------------------------

Dodaj komentarz ...i/lub link do filmiku video

Zaloguj się do serwisu
Wszelkie materiały i wypowiedzi zamieszczone na www.chords.pl są własnością ich autorów.