Zacznij systematycznie uczyć się grać na gitarze razem ze stroną Moja nauka - będziesz miał/miała do niej dostęp po zalogowaniu się w serwisie

Loża szyderców (tab) - Hunter

Opracował -a: petlica,
Dodał -a: petlica,
Redaktor: petlica,
Pochodzi z: http://www.chords.pl/
Data publikacji: 2013-01-22 08:34
 
Moja nauka


Ups, problem :-/
Zaloguj się Mój śpiewnik
standard pół tonu niżej

Na razie początek, postaram się dopisac resztę jak uda mi się rozsądnie to rozczytać.

 Intro
Eb|-----------------------------------|-----------------------------------|
B |-----------------------------------|-----------------------------------|
Gb|----0------0-----2-----4-----0-----|----0------0-----2-----4-----0-----|
Db|------4------4-----4-----4-----4---|------4------4-----4-----4-----4---|
Ab|--------2------2-----2-----2-----2-|--------2------2-----2-----2-----2-|
Eb|(0)--------------------------------|-0---------------------------------|


Eb|-----------------------------------|-----------------------------------|
B |-----------------------------------|-----------------------------------|
Gb|----0------0-------0-----2-----4---|----0------0-------0-----2-----4---|
Db|------4------4-------4-----4-----4-|------4------4-------4-----4-----4-|
Ab|-3------3------3-5-----5-----5-----|-3------3------3-5-----5-----5-----|
Eb|-----------------------------------|-- --------------------------------|

 Verse                              x3
Eb|----------------------------------|-----------------------------------|
B |----------------------------------|-----------------------------------|
Gb|---0------0-----2-----4-----0-----|----0------0-----------------------|
Db|-----4------4-----4-----4-----4---|------4------4---------------------|
Ab|-------2------2-----2-----2-----2-|--------2--------------------------|
Eb|-0--------------------------------|-0---------------------------------|


Eb|-----------------------------------|-----------------------------------|
B |-----------------------------------|-----------------------------------|
Gb|----0------0-----2-----4-----0-----|----0------0-----2-----4-----0-----|
Db|------4------4-----4-----4-----4---|------4------4-----4-----4-----4---|
Ab|--------2------2-----2-----2-----2-|--------2------2-----2-----2-----2-|
Eb|(0)--------------------------------|-0---------------------------------|


Eb|-----------------------------------|--------------------------0-----|
B |-----------------------------------|--------------------------1-----|
Gb|----0------0-------0-----2-----4---|----0------0-----0------2-------|
Db|------4------4-------4-----4-----4-|------4------4--------3---------|
Ab|-3------3------3-5-----5-----5-----|-3------3------3----------------|
Eb|-----------------------------------|-- -----------------1-----------|


pozdr
petlica

Dodaj komentarz ...i/lub link do filmiku video

Zaloguj się do serwisu
Wszelkie materiały i wypowiedzi zamieszczone na www.chords.pl są własnością ich autorów.