Zacznij systematycznie uczyć się grać na gitarze razem ze stroną Moja nauka - będziesz miał/miała do niej dostęp po zalogowaniu się w serwisie

Długa Droga W Dół - Happysad

Dodał -a: bloodmoon666,
Redaktor: Zetu,
Data publikacji: 2008-02-22 09:56
 
Moja nauka


Ups, problem :-/
Zaloguj się Mój śpiewnik


E||---------------------------------|-----------------------|
B||-----------5----6----------------|--5----3----/5----6----|
G||*---2/7--------------------------|-----------------------|
D||*--------------------------------|-----------------------|
A||---------------------------------|-----------------------|
E||---------------------------------|-----------------------|


------------------------|-------------/5---------|---------------------|
---6/8------------------|--/6----5------------5--|---------------------|
------------------------|------------------------|-------5-------------|
------------------------|------------------------|---------------------|
------------------------|------------------------|---------------------|
------------------------|------------------------|---------------------|



--/5-------------------|-----------------------------||--------------------
------5----/6----------|-------8\6--5----------------||--/3----------------
-----------------------|----------------------------*||--------------------
-----------------------|----------------------------*||--------------------
-----------------------|-----------------------------||--------------------
-----------------------|-----------------------------||--------------------

Dodaj komentarz ...i/lub link do filmiku video

Zaloguj się do serwisu
Ostatnie komentarze
1.
egeszege
2008-12-19 17:16
elegancko:) pierwsze dobre solo:) szkoda tylko ze nie ma mocniejszej partii opracowanej:)
Wszelkie materiały i wypowiedzi zamieszczone na www.chords.pl są własnością ich autorów.