Zacznij systematycznie uczyć się grać na gitarze razem ze stroną Moja nauka - będziesz miał/miała do niej dostęp po zalogowaniu się w serwisie

Jeszcze, jeszcze (solo) - Happysad

Opracował -a: mgdpunk,
Dodał -a: mgdpunk,
Redaktor: Tomek Pietrzkowski,
Pochodzi z: http://www.chords.pl
Data publikacji: 2010-06-20 10:22
 
Moja nauka


Ups, problem :-/
Zaloguj się Mój śpiewnik


0:33-0:40; 2:01-2:08

-2-2-2-2-3--2-2-2-5-5-5-5-3-2-2-2-3-2-0-
----------------------------------------
----------------------------------------
----------------------------------------
----------------------------------------
----------------------------------------

1:12-1:27; 2:41-2:56

-----5----------------------------------
-------8-7---5-5-3-2-3-777-5-3-2-3-2----
-6-7-------2----------------------------
----------------------------------------
----------------------------------------
----------------------------------------

-----5----------------------------------
-------8-7---5-5-3-2-3-777-5-3-2-3-2----
-6-7-------2----------------------------
----------------------------------------
----------------------------------------
----------------------------------------

3:29-4:05

-------5-------5-7----------------------
-7-7-8---7-7-8-----8-7-777-8-5-555------
----------------------------------------
----------------------------------------
----------------------------------------
----------------------------------------

-------5-------5-5----------------------
-7-7-8---7-7-8-----8-7-777-8-5-555------
----------------------------------------
----------------------------------------
----------------------------------------
----------------------------------------

-121210109--121210109-777-55------------
-----------------------------88-77-5----
----------------------------------------
----------------------------------------
----------------------------------------
----------------------------------------

-------5-------5-7-5---------7-5--------
-7-7-8---7-7-8-------8-7-8-7-----8-7----
-------------------------------------7--
----------------------------------------
----------------------------------------
----------------------------------------

Dodaj komentarz ...i/lub link do filmiku video

Zaloguj się do serwisu
Wszelkie materiały i wypowiedzi zamieszczone na www.chords.pl są własnością ich autorów.