Zacznij systematycznie uczyć się grać na gitarze razem ze stroną Moja nauka - będziesz miał/miała do niej dostęp po zalogowaniu się w serwisie

Lęki i fobie (solo) - Happysad

Opracował -a: dragon42,
Dodał -a: dragon42,
Redaktor: Tomek Pietrzkowski,
Data publikacji: 2010-06-20 10:22
 
Moja nauka


Ups, problem :-/
Zaloguj się Mój śpiewnik


Zw. a, d, G, C, E

Ref. d, C, E


SOLO
|7--5-------------------------------------5--5-8-7---------7|
|5----8-6-5~~---6-5~~---6-5~~-------------8--------8-5-5/--5|
|6------------7-------7-------7-5---------7----------------6|
|---------------------------------7~~-7/--------------------|
|-----------------------------------------------------------|
|-----------------------------------------------------------|
 ^                                        ^                ^

|5-------------------------------------5--5------|
|--8-6-5~~---6-5~~---6-5~~-------------8--8------|
|----------7-------7-------7-5---------7--7------|
|------------------------------7~~-7/------------|
|------------------------------------------------|
|--------------------------------------------10/0|
                                      ^  ^

Dodaj komentarz ...i/lub link do filmiku video

Zaloguj się do serwisu
Wszelkie materiały i wypowiedzi zamieszczone na www.chords.pl są własnością ich autorów.