Zacznij systematycznie uczyć się grać na gitarze razem ze stroną Moja nauka - będziesz miał/miała do niej dostęp po zalogowaniu się w serwisie

Undone - Happysad

Opracował -a: ĄŚ,
Redaktor: Tomek Pietrzkowski,
Pochodzi z: http://www.chords.pl
Data publikacji: 2008-01-09 00:02
 
Moja nauka


Ups, problem :-/
Zaloguj się Mój śpiewnik


e--------------------------------------------
b----------0----------0---------0---------0--
g-------3-----------3--------5----------3----
d-----2----------2---------4----------2------
a-------------3----------5---------3---------
E-3------------------------------------------

e-3-3-3-3--0-0-0-0--2-2-2-2--0-0-0-0---
b-3-3-3-3--1-1-1-1--3-3-3-3--1-1-1-1---
g-0-0-0-0--0-0-0-0--2-2-2-2--0-0-0-0---
d-0-0-0-0--2-2-2-2--0-0-0-0--2-2-2-2---
a-2-2-2-2--3-3-3-3-----------3-3-3-3---
E-3-3-3-3------------------------------

lub
e------------------------------------
b------------------------------------
g-4-4-4-4-5-5-5-5-7-7-7-7-5-5-5-5----
d-5-5-5-5-5-5-5-5-7-7-7-7-5-5-5-5----
a-5-5-5-5-3-3-3-3-5-5-5-5-3-3-3-3----
E-3-3-3-3-3-3-3-3-5-5-5-5-3-3-3-3----

Dodaj komentarz ...i/lub link do filmiku video

Zaloguj się do serwisu
Ostatnie komentarze
1.
M4CK5
2008-05-14 17:55
no spoko ;) tylko moznaby bylo dopisac nazwy akordow ze sa tam: G C D C
2.
izaak
2008-01-10 13:06
dobre opracowanie :)
Wszelkie materiały i wypowiedzi zamieszczone na www.chords.pl są własnością ich autorów.