Zacznij systematycznie uczyć się grać na gitarze razem ze stroną Moja nauka - będziesz miał/miała do niej dostęp po zalogowaniu się w serwisie

Nie wiem (tab) - Happysad

Opracował -a: petlica,
Dodał -a: petlica,
Redaktor: petlica,
Pochodzi z: http://www.chords.pl
Data publikacji: 2012-02-04 19:10
 
Moja nauka


Ups, problem :-/
Zaloguj się Mój śpiewnik
Intro / Verse

 Guitar_1                                     x3
|-----------------------------------------------|
|-----------------------------------------------|
|-----5-5-5----5-5-5--------10-10-10------7-7-7-|
|-----0-0-0----0-0-0---------0--0--0------0-0-0-|
|-----x-x-x----x-x-x---------x--x--x------x-x-x-|
|-5-5--------5--------10-10-----------7---------|


|----------------------------------------|
|----------------------------------------|
|-----9-9-9----9-9-9-------4-4-4---4-4-4-|
|-----0-0-0----0-0-0-------0-0-0---0-0-0-|
|-----x-x-x----x-x-x-------x-x-x---x-x-x-|
|-8-8--------8--------3-3--------3-------|

 Verse Guitar_2
|------------------------------------------------------------------------------------|
|------------------------------------------13-13-13-13-13--13----15--12h13-12--------|
|-------------------------------------------------------------12--------------12-----|
|---------------------------------------------------------------------------------12-|
|------------------------------------------------------------------------------------|
|------------------------------------------------------------------------------------|


|-----------15/13--------------15/13-------------15/13-------------------------------|
|-15/17~----------12--15/17~---------12-15/17~----------12--13----15--12h13-12-------|
|--------------------------------------------------------------12--------------12----|
|---------------------------------------------------------------------------------12-|
|------------------------------------------------------------------------------------|
|------------------------------------------------------------------------------------|


End of verse

Guitar_1
|----------------|
|--1-1-0--0-0--1-|
|--2-2-2--2-2--2-|
|--2-2-2--2-2--2-|
|--0-0-----------|
|----------------|

Guitar_2
|----------------|
|-10/12--10~-----|
|----------------|
|----------------|
|----------------|
|----------------|

Riff A
 Guitar_1                                           x3
|-----------------------------------------------------|
|-----------------------------------------------------|
|-----------------------------------------------------|
|-----------------------------------------------------|
|-----------------------------------------------------|
|-5--5-5-5-5--5--5-5-5-5--10--10-10-10-10--7--7-7-7-7-|


|------------------------------------------------|
|------------------------------------------------|
|------------------------------------------------|
|------------------------------------------------|
|------------------------------------------------|
|-8--8-8-8-8--8--8-8-8-8--3--3-3-3-3--3--3-3-3-3-|

Guitar_2
|------------------------------------------------------------------------|
|------------------------------------------------------------------------|
|------------------------------------/10--10-10-10-10--------------------|
|-10--10-10-10-10---10--10-10-10-10---------------------12--12-12-12-12--|
|------------------------------------------------------------------------|
|------------------------------------------------------------------------|


|-------------------------------------------------|
|-------------------------------------------------|
|--9--9-9-9-9---9--9-9-9-9------------------------|
|---------------------------9--9-9-9-9--9b10------|
|-------------------------------------------------|
|-------------------------------------------------|

Riff B

 Guitar_1        x3
|------------------|------------------|
|-1-----3----3-----|-1---------3------|
|-2-----2----0-----|-0---------0------|
|-2-----0----0-----|-2---------0------|
|-0----------2-----|-3---------2------|
|------------------|-----------3------|

 Guitar_2        x3 wah-wah
|------------------|--8--------3------|-5-------|
|------------------|--8--------3------|-5-------|
|-------7----------|--9--------4------|-5-------|
|-7-----7----------|-10--------5------|-7-------|
|-7-----5----5-----|------------------|-7-------|
|-5----------7-----|------------------|-5-------|


Bridge
A x3    C G


petlica

Dodaj komentarz ...i/lub link do filmiku video

Zaloguj się do serwisu
Wszelkie materiały i wypowiedzi zamieszczone na www.chords.pl są własnością ich autorów.