Zacznij systematycznie uczyć się grać na gitarze razem ze stroną Moja nauka - będziesz miał/miała do niej dostęp po zalogowaniu się w serwisie

Ja do ciebie - Happysad

Opracował -a: smolarek30,
Redaktor: Miłosz,
Data publikacji: 2008-12-13 14:05
 
Moja nauka


Ups, problem :-/
Zaloguj się Mój śpiewnik


intro
(powtarza się po każdej zwrotce)
E----------------------------------
H----------------------------------
G----------------------------------
D-----------------------2----------
A-------3-0-0---0-0-3-3---5-3-2----
E--3--3-------------------------5--

E----------------------------------
H----------------------------------
G----------------------------------
D-----------------------2----------
A-------3-0-0---0-0-3-3---5-3-2----
E--3--3-------------------------3 i tutaj z przejściem na akord G
Zwrotka;
Nieproporcjonalne....  G
                       a
                       C
                       D

To mówię ja.........   e
                       C
                       D

Kiedyś kupię nóż...... G
                       e
                       C
                       D

Tylko ja i ty........  G
                       e
                       G
                       e
                       G
                       e
                       C
                       D


i potem tak jak wcześniej G e C D


Potem zaczyna się solo.... i gra się tak

E-----------------------------------------------
H--3-3-3-3-3---3-3-3-5-5-5-5----5-5-5-7-7-7-7---
G-----------------------------------------------
D-----------------------------------------------
A-----------------------------------------------
E-----------------------------------------------

E-----------------------------------------------
H--7-7-7--5-5-5-5----5-5-5-3-3-3-3--------------
G-----------------------------------------------
D-----------------------------------------------
A-----------------------------------------------
E-----------------------------------------------

E----------------------------------------------------
H--3-3-3--5-5-5-5---5-5-5--7-7-7-7----7-7-7-5-5-5-5--
G----------------------------------------------------
D----------------------------------------------------
A----------------------------------------------------
E----------------------------------------------------

E-----------------------------------------------------------------
H--5-5-5-7-7-7-7-7-7-7-7-8-8-8-8-8-8-8-8-10-10-10-10-10-10-10-10--
G-----------------------------------------------------------------
D-----------------------------------------------------------------
A-----------------------------------------------------------------
E-----------------------------------------------------------------

E--------------------------------------------------------------------------
H--8-8-8-8-8-8-8-8-7-7-7-7-7-7-7-7-8-8-8-8-8-8-8-8-10-10-10-10-10-10-10-10-
G--------------------------------------------------------------------------
D--------------------------------------------------------------------------
A--------------------------------------------------------------------------
E--------------------------------------------------------------------------

E--------------
H--8-8-8-10-12-
G--------------
D--------------
A--------------
E--------------

solo:

E----------------------------------------------15-15-15-14--15-14-----------------------
H--13-13-13-12--12-12-12-10-10-10-12--12-12-12--------------------15-12-12-12-10--10-10-
G---------------------------------------------------------------------------------------
D---------------------------------------------------------------------------------------    4 razy
A---------------------------------------------------------------------------------------
E---------------------------------------------------------------------------------------

E--17-17-17-15--15-15-15------------------------|----------------------------------------------
H------------------------13-13-13-12--12-12-12--|-15-15-15-13--13-13-13--17-17-17-15--15-15-15-
G-----------------------------------------------|----------------------------------------------
D-----------------------------------------------|----------------------------------------------4 razy
A-----------------------------------------------|----------------------------------------------
E-----------------------------------------------|----------------------------------------------

z tym że za czwartym razem
  końcówkę powyższej tab gramy:
  (pionowymi kreskami zaznaczyłem odkąd)         |---------------------------------------------
                                                 |-15-13-12-13-12-10-7----8-10-----------------
                                                 |---------------------------------------------
                                                 |---------------------------------------------
                                                 |---------------------------------------------
                                                 |---------------------------------------------

Zakończenie:

E--15-15-15-14-14-14-12-14--15-15-15-14-14-14-12-14--
H----------------------------------------------------
G----------------------------------------------------
D----------------------------------------------------
A----------------------------------------------------
E----------------------------------------------------

E---------------------------------------------------   całośc 4 razy!
H--13-13-13-12-12-12-12-15-15-15-13-13-13-12-13-----
G---------------------------------------------------
D---------------------------------------------------
A---------------------------------------------------
E---------------------------------------------------

Z tym że za czwartym razem zakańczamy tak:

  --------------------------------------------------
  --13-13-13-12--12-12-12--15-13-13--12-12-10-8-10-8
  --------------------------------------------------
  --------------------------------------------------
  --------------------------------------------------
  --------------------------------------------------
Dodał: tomek1995, 2013-11-20 17:21
Opracowania video z komentarzy

Dodaj komentarz ...i/lub link do filmiku video

Zaloguj się do serwisu
Ostatnie komentarze
1.
monika752
2015-01-03 20:40
Jakie tu są bicia?
2.
tomek1995
2013-11-20 17:21
Wersja akustyczna ;)
3.
marciooo
2013-03-26 15:44
jakie grasz taby jak wchodzi druga gitara?
4.
mumiateusz
2011-04-20 20:06
THX dzięki. Bardzo dobre taby.
Wszelkie materiały i wypowiedzi zamieszczone na www.chords.pl są własnością ich autorów.