Zacznij systematycznie uczyć się grać na gitarze razem ze stroną Moja nauka - będziesz miał/miała do niej dostęp po zalogowaniu się w serwisie

W piwnicy u dziadka (taby) - Happysad

Dodał -a: bmth,
Redaktor: Tomek Pietrzkowski,
Pochodzi z: http://www.youtube.com
Data publikacji: 2010-05-17 00:15
 
Moja nauka


Ups, problem :-/
Zaloguj się Mój śpiewnik


Tą część gramy chwytając C-dur (C) :
E ----------------------
H ----------------------
G ----------0-----------
D --2-2---2-----2-2---0-
A 3-----3-----3-----3---
E ----------------------

Tą część gramy chwytając A-moll (a) :
E ----------------------
H ----------------------
G ----------2-----------
D --2-2---2-----2-------
A 0-----0-----0---------
E ----------------------

W tej części nie chwytamy żadnego akordu :
E ----------------------
H 0p2h0-----------------
G ------2h0-------------
D ----------------------
A ----------------------
E ----------------------

h - hammer on
p - pull off

Przejścia " No bo gdzie... " :
D-moll (d) G-dur (G) C-dur (C)
Każdy akord uderzamy tylko raz od strun basowych.
Dodał: Bartek Pawłowski, 2015-02-21 01:24
Opracowania video z komentarzy

Dodaj komentarz ...i/lub link do filmiku video

Zaloguj się do serwisu
Ostatnie komentarze
1.
ror15
2011-01-24 00:41
wstęp: e|------------------------------------------------- H|------------------------------------------------- G|-------0---------0---------2--2-2----2--0h2p0---- D|--2--2--2---2--2--2-0------------2------------2p0 A|-3----3----3----3---------0----0----0------------ E|-------------------------------------------------
2.
matejpanek
2011-01-23 21:21
wkoncu, ktos, cos, wie. Tomek tak to sie da zagtrac z lekka poprawka ale to chociaz przypomina piosenke a nie @*&###$@>>
3.
damdam1990
2010-07-06 02:47
chyba ci się pomyliło bo nie bardzo da się zagrać 0p2h0 xDD Powinno być 0h2p0
Wszelkie materiały i wypowiedzi zamieszczone na www.chords.pl są własnością ich autorów.