Zacznij systematycznie uczyć się grać na gitarze razem ze stroną Moja nauka - będziesz miał/miała do niej dostęp po zalogowaniu się w serwisie

Most na krzywej (tab) - Happysad

Opracował -a: kacperr16,
Dodał -a: kacperr16,
Redaktor: Seba,
Pochodzi z: http://www.chords.pl
Data publikacji: 2012-09-14 13:29
 
Moja nauka


Ups, problem :-/
Zaloguj się Mój śpiewnik


happysad - most na krzywej

Wstęp:

A  H

Zwrotka:

E  cis  H

E  E  A  E

E  cis  H

E  E  A  E

Ref.

Gis  cis

A  H  Gis  cis

A  H

Przejście:

E  A            a w tym czasie latawiec wchodzi z motywem:


E|-------------------7h9--7------7------------------7-----------------------------
B|-------9-9-9--9-9----------9-----9--7--9--7--------------------9--7----7--------
G|---------------------------------------------6--9----9---6--9-------9-----9-----      2x
D|-----------------------------------------------------------------------------9--
A|--------------------------------------------------------------------------------
E|--------------------------------------------------------------------------------


Zwrotka 2:



E  cis  H

E  E  A  E

E  cis  H

E  E  A  E

E|-----------------------------------------------------------------
B|---------------------------------------9-------------------------
G|------8--9-9-9-9------8--9-9-9-9----------9-9-9-9----8--9-9-9-9--
D|-----------------------------------------------------------------
A|-----------------------------------------------------------------
E|-----------------------------------------------------------------

E|---------------------------------------------------------------------------------
B|--------------------------------------9------------------------------------------
G|------8--9-9-9-9------8--9-9-9-9--------9-9-9-9----8--9-9-9-9---8--9-9-9-9--8-9--
D|---------------------------------------------------------------------------------
A|---------------------------------------------------------------------------------
E|---------------------------------------------------------------------------------

Ref.

Gis  cis

A  H  Gis  cis

A  H

w trakcie refrenu to gra pan latawiec:

E|---------------------------------------------------------------------------------
B|-----------------------------------------------9-------10-9-7-9------------------
G|-------------------8-8-8-8-9-9-9-9----11-9-8-------------------------------------
D|------10-10-10-10---------------------------------------------------/11---/11----
A|---------------------------------------------------------------------------------
E|---------------------------------------------------------------------------------


Przejście:

E  A            a w tym czasie latawiec wchodzi z motywem:


E|-------------------7h9--7------7-------------------7----------------------------
B|-------9-9-9--9-9----------9-----9--7--9--7---------------------9--7----7-------
G|---------------------------------------------6--9-----9---6--9-------9-----9----
D|-----------------------------------------------------------------------------9--
A|--------------------------------------------------------------------------------
E|--------------------------------------------------------------------------------

E|-------------------7h9--7------7------------------------------------------------
B|-------9-9-9--9-9----------9-----9--7--9--7--------9------------9--7----7-------
G|---------------------------------------------6--9-----9---6--9-------9-----9----
D|-----------------------------------------------------------------------------9--
A|--------------------------------------------------------------------------------
E|--------------------------------------------------------------------------------

Zwrotka 3:  tak samo jak 2.

Solo:

E  A

Pan latawiec gra dość szybką partie, nie potrafię tego rozpisać dokładnie.

Zwrotka 4:

Gis  cis

Gis  cis


Ref.

Gis cis

A  H  Gis  cis

A  H

E|------------------------------------------------------
B|-----------------------------------------------9------
G|-------------------8-8-8-8-9-9-9-9----11-9-8----------
D|------10-10-10-10-------------------------------------     w trakcie refrenu to gra pan latawiec
A|------------------------------------------------------
E|------------------------------------------------------


Zakończenie:

E  Gis  A  H   |
               |   4x
E   E   A  H   |



E   na sam koniec :)
Dodał: Bartek Pawłowski, 2016-06-14 18:33
Opracowania video z komentarzy

Dodaj komentarz ...i/lub link do filmiku video

Zaloguj się do serwisu
Ostatnie komentarze
1.
drgh
2015-01-24 22:29
dobra robota :)
Wszelkie materiały i wypowiedzi zamieszczone na www.chords.pl są własnością ich autorów.