Zacznij systematycznie uczyć się grać na gitarze razem ze stroną Moja nauka - będziesz miał/miała do niej dostęp po zalogowaniu się w serwisie

W Piwnicy u dziadka (Druga gitara) - Happysad

Opracował -a: maciekstp,
Redaktor: Tomek Pietrzkowski,
Pochodzi z: http://www.chords.pl
Data publikacji: 2009-04-22 00:01
 
Moja nauka


Ups, problem :-/
Zaloguj się Mój śpiewnik


Po pierwszej zwrotce:

E1|------------------------------------------------|
H2|---------------10-------------------------------|
G3|-----------12-----12----------------------------|
D4|-10-10--10-----------10-10--10-----9------------|
A5|-------------------------------10---------------|
E6|------------------------------------------------|      x2

Druga zwrotka:

E1|------------------------------------------------|
H2|------------------------------------------------|
G3|-12-12--12-12--14--10--9---10-9-----------------|
D4|---------------------------------12--10---12----|
A5|------------------------------------------------|
E6|------------------------------------------------|
                                                        } x2
E1|------------------------------------------------|
H2|------------------------------------------------|
G3|----------9-------------------------------------|
D4|---10--12---12-10--12--10--9--------------------|
A5|-------------------------------12-10------------|
E6|------------------------------------------------|


E1|------------------------------------------------|
H2|------------------------------------------------|
G3|------------------------------------------------|
D4|------------------------------------------------|
A5|----------------------------------7-------------|
E6|--8--10--12-13-12--10--12--10--8----------------|
                                                        } x2
E1|------------------------------------------------|
H2|------------------------------------------------|
G3|------------------------------------------------|
D4|------------------------------------------------|
A5|-------------------------------5----------------|
E6|------5---3-5----3-5---7---8--------------------|


E1|--------5--------------3------------------------|
H2|--------6--------------3------------------------|
G3|--------7--------------4------------------------|
D4|--------7--------------5------------------------|
A5|--------5--------------5------------------------|
E6|--------5--------------3------------------------|

Następne zwrotki tak samo.
maciekstp
Dodał: Bartek Pawłowski, 2015-02-19 22:37
Opracowania video z komentarzy

Dodaj komentarz ...i/lub link do filmiku video

Zaloguj się do serwisu
Wszelkie materiały i wypowiedzi zamieszczone na www.chords.pl są własnością ich autorów.