Zacznij systematycznie uczyć się grać na gitarze razem ze stroną Moja nauka - będziesz miał/miała do niej dostęp po zalogowaniu się w serwisie

Nie wiem (Nie ma nieba) - Happysad

Opracował -a: tomeczeQ,
Redaktor: Roob,
Pochodzi z: http://www.chords.pl
Data publikacji: 2009-07-19 20:01
 
Moja nauka


Ups, problem :-/
Zaloguj się Mój śpiewnik


Zwrotka: (partia Kuby wzięta z komentarze uzytkownika maciekstp)
Kuba gra tutaj na dwóch strunach, resztę tłumi:

Nie wiem ...
    a   d   h
E|------------|
H|------------|
G|--5---10--7-|
D|------------|
A|------------|
E|--5---10--7-|

Czy spotkamy się w niebie...

    C   G
E|------------|
H|------------|
G|--9---4-----|
D|------------|
A|------------|
E|--8---3-----|

Partia Latawca w zwrotce:

E|----12---15-13-------12---15-13-------12---15-13--------------------------|
H|-15------------15-15------------15-15------------15--13----13--15-13-12-12|
G|--------------------------------------------------------12----------------|
D|--------------------------------------------------------------------------|
A|--------------------------------------------------------------------------|
E|--------------------------------------------------------------------------|

Przejście:
Latawiec:
    a   d   h
E|------------|
H|------------|
G|------------|
D|------------|
A|------------|
E|--5---10--7-|

E|------------|
H|------------|
G|------------|
D|------------|
A|------------|
E|--8---3-----|

Kuba gra tak jak w zwrotce tylko w innym tempie.

Refren:
a d G
C G

(jedna gitara barre druga zwykłe).

Dodaj komentarz ...i/lub link do filmiku video

Zaloguj się do serwisu
Ostatnie komentarze
1.
transistor152
2012-12-07 16:18
Na mój słuch partia latawca idzie tak: Wejście: E|------------------------------------| H|-13131313-13----15--12h13h12--------| G|-------------12--------------12-----| D|--------------------------------12--| A|------------------------------------| E|------------------------------------| Część właściwa: E|----12---15-13-------12---15-13-------12---15-13-----------------------------| H|-15------------12-15------------12-15------------12--13----15--12h13h12------| G|--------------------------------------------------------12--------------12---| D|---------------------------------------------------------------------------12| A|-----------------------------------------------------------------------------| E|-----------------------------------------------------------------------------|
2.
_Avatar
2011-07-21 12:20
Bardzo fajne opracowanie. Zmieniłbym tylko trochę partię Latawca na: E|----12---15-13-------12---15-13-------12---15-13------------------------------| H|-15------------15-15------------15-15------------15--13----15--13h15p13-12----| G|--------------------------------------------------------12------------------12| D|------------------------------------------------------------------------------| A|------------------------------------------------------------------------------| E|------------------------------------------------------------------------------|
3.
smolarek30
2010-02-18 14:19
Pierwsze przejście, które opisałeś w ten sposób: ''1:06'' łapiesz normalne a-moll i puszczasz strunę H E-------------------| H--1-1-0--0-0--1-| G--2-2-2--2-2--2-| D--2-2-2--2-2--2-| A-------------------| E-------------------| O to ci chodziło?:):)
4.
zielonka
2010-02-14 16:02
Siemanko sluchajcie mam takie pytanie dotyczace przejsc w tej piosence:) bo tu jest pewne wykonanie : http://www.youtube.com/watch?v=vSStQDbZyMs i nie umiem wykminic jak idzie przejscie z 1:06 z 2:16 i 2:25 :P jesli ktos by mi pomogl to bylbym bardzo wdzieczny:)
Wszelkie materiały i wypowiedzi zamieszczone na www.chords.pl są własnością ich autorów.