Zacznij systematycznie uczyć się grać na gitarze razem ze stroną Moja nauka - będziesz miał/miała do niej dostęp po zalogowaniu się w serwisie

Wpuść mnie (tab) - Happysad

Opracował -a: kacperr16,
Dodał -a: kacperr16,
Redaktor: SEBEK1304,
Pochodzi z: http://www.chords.pl
Data publikacji: 2012-08-28 07:58
 
Moja nauka


Ups, problem :-/
Zaloguj się Mój śpiewnik


Motyw grany podczas zwrotek przez Pana Latawca.


E|---------------------------------------------------------------|
B|---------------------------------------------------------------|
G|---------------------------------------------------------------|
D|-------14----14--16-16-16-14------------14----14--16-16-14-----|
A|---14-----14------------------14-----14--------------------14--|
E|---0-------------------------------0-------0-------------------|


E|-------------------------------------------------------------------------|
B|-------------------------------------------------------------------------|
G|---------11---------13-13-13--11------------11--------13-13-11-----------|
D|------11-----11------------------11------11----11--------------11-11-11--|
A|---12-----------12--------------------12----------12---------------------|
E|-------------------------------------------------------------------------|


E|---------------------------------------------------------------|
B|--------9--------10-10-10-9----------9----------12-10-9--------|
G|------9---9-----------------9------9---9------------------9----|
D|---11-------11------------------11--------11----------------11-|
A|---------------------------------------------------------------|
E|---------------------------------------------------------------|


E|---------------------------------------0----------|
B|-------7-----------5----------------0-----0-------|
G|-----8---8-------6---6------1----1----------2--1--|
D|---9-------9---7-------7----2---------------------|
A|----------------------------2---------------------|
E|--------------------------------------------------|

Dodaj komentarz ...i/lub link do filmiku video

Zaloguj się do serwisu
Wszelkie materiały i wypowiedzi zamieszczone na www.chords.pl są własnością ich autorów.