Zacznij systematycznie uczyć się grać na gitarze razem ze stroną Moja nauka - będziesz miał/miała do niej dostęp po zalogowaniu się w serwisie

Go! - Happysad

Opracowali: kacpera, Themer,
Pochodzi z: http://www.chords.pl
Data publikacji: 2005-05-23 01:18
 
Moja nauka


Ups, problem :-/
Zaloguj się Mój śpiewnik


a    d                            a
Go, move your feet ..................
Go, move your soul ..................
a           C           e
In to the ragtag ........
in to the ragtag ........

Intro:
......................................................x3
e|-5------------------------------------------------5-||
b|----5-5-6--5--5--5-5-6--5--6--6-6-8--6--6--6-6-8----||
g|----------------------------------------------------||
d|----------------------------------------------------||
a|----------------------------------------------------||
e|----------------------------------------------------||


"Go..."
.................x2................x2
e|--------3-------|--------3-------||
b|-5--5-5---5-5-5-|-6--6-6---6-6-6-||
g|----------------|----------------||
d|----------------|----------------||
a|----------------|----------------||
e|----------------|----------------||


"In to the..."

e|-----------3----------3-5-||
b|-5--5--5-6----6--6--6-----||
g|--------------------------||
d|--------------------------||
a|--------------------------||
e|--------------------------||


"Hej, hej hej woodstock..." ;P

e|-------------------------------3-|-------------------------------3-||
b|-5-5-5-5-5-5-5-5-5-5-5-5-5-5-5---|-6-6-6-6-6-6-6-6-6-6-6-6-6-6-6---||
g|---------------------------------|---------------------------------||
d|---------------------------------|---------------------------------||
a|---------------------------------|---------------------------------||
e|---------------------------------|---------------------------------||

Dodaj komentarz ...i/lub link do filmiku video

Zaloguj się do serwisu
Wszelkie materiały i wypowiedzi zamieszczone na www.chords.pl są własnością ich autorów.