Zacznij systematycznie uczyć się grać na gitarze razem ze stroną Moja nauka - będziesz miał/miała do niej dostęp po zalogowaniu się w serwisie

Made in china (tab) - Happysad

Opracował -a: kacperr16,
Dodał -a: kacperr16,
Redaktor: SEBEK1304,
Pochodzi z: http://www.chords.pl
Data publikacji: 2011-06-22 19:23
 
Moja nauka


Ups, problem :-/
Zaloguj się Mój śpiewnik


Made in china - partia Pana Latawca

E--------------12-------------------------------------------------------------------|
H---------12---------------------12-------------------------------------------------|
G-------------------9---------------------9--8--6--8-------------4/11--9--8--9------|
D-----------------------------------------------------9-----------------------------|
A-----------------------------------------------------------------------------------|
E-----------------------------------------------------------------------------------|

KOCHANA!!!


E----------------------------------------------------------------------------------------------|
H----9----9--10--12--10-------------9------9--10--12--10-------------10---12---9----7-7-7-7/9--|
G------9------------------11-----------9------------------11-----------------------------------|
D----------------------------------------------------------------------------------------------|
A----------------------------------------------------------------------------------------------|
E----------------------------------------------------------------------------------------------|

powyższa partia grana jest 2 razy podczas refrenu

E---------------9----------------------------------------------------------------------------
H----12------------9-9-9-9-9------10-9-9-9-9-9----12-9-9-9-9-9----------------------9/17-----
G----------------------------------------------------------------11--9-----------------------
D-----------------------------------------------------------------------11--9----------------
A--------------------------------------------------------------------------------------------
E--------------------------------------------------------------------------------------------

E-----------9---------------------------------------------------------|
H--------------9-9-9-9-9-----10-9-9-9-9-9-----12-9-9-9-9-9------------|
G-------------------------------------------------------------11--9---|
D---------------------------------------------------------------------|
A---------------------------------------------------------------------|
E---------------------------------------------------------------------|


KOCHANA!

E----------------------------------------------------------------------------------------------|
H----9----9--10--12--10-------------9------9--10--12--10-------------10---12---9----7-7-7-7/9--|
G------9------------------11-----------9------------------11-----------------------------------|
D----------------------------------------------------------------------------------------------|
A----------------------------------------------------------------------------------------------|
E----------------------------------------------------------------------------------------------|

powyższa partia grana jest 2 razy podczas refrenu


Wstawka przed solówką na trąbce

E------------------------------------------------------------------------
H------------------------------------------------------------------------
G------8-8-8-9-11--8-------------------8-8-8-9-11-8----------------------
D----------------------11--9--------------------------11--9--------------
A------------------------------12------------------------------12---11---
E------------------------------------------------------------------------

W tej części grane jest kilka dźwięków na raz(coś w formie akordów) razem z efektem kaczki(wah-wah):

E-------9---9------7--7-------9---9--------------
H------10--10------9--9------10--10----9--9------
G-------9---9------9--9------11--11----9--9------  grane 2 razy
D-------9---9----------------11--11----9--9------
A------------------------------------------------
E------------------------------------------------

Podczas właściwej solówki na trąbce:

E----------------------------------------------------------------------------------------
H----5/9-----10--12--10-----------5/9-----10--12--10---------10--12--9------7-7-7-7/9----
G---------9---------------11-----------9---------------11--------------------------------
D----------------------------------------------------------------------------------------
A----------------------------------------------------------------------------------------
E----------------------------------------------------------------------------------------

E----------------------------------------------------------------------------------------
H----5/9-----10--12--10-----------5/9-----10--12--10---------10--12--9-------------------
G---------9---------------11-----------9---------------11--------------------------------
D----------------------------------------------------------------------------------------
A----------------------------------------------------------------------------------------
E----------------------------------------------------------------------------------------

E----------------------------------------------------------------------------------------
H----------------------------------------------------------------------------------------
G------8-8-8-9-11--8-------------------8-8-8-9-11-8--------------------------------------
D----------------------11--9--------------------------11--9------------------------------
A------------------------------12------------------------------12---11-------------------
E----------------------------------------------------------------------------------------

III zwrotka

Na twarz źródlana woda....

E---------------9----------------------------------------------------------------------------
H------------------9-9-9-9-9------10-9-9-9-9-9----12-9-9-9-9-9----------------------9/17-----
G----------------------------------------------------------------11--9-----------------------
D-----------------------------------------------------------------------11--9----------------
A--------------------------------------------------------------------------------------------
E--------------------------------------------------------------------------------------------

E-----------9---------------------------------------------------------|
H--------------9-9-9-9-9-----10-9-9-9-9-9-----12-9-9-9-9-9------------|
G-------------------------------------------------------------11--9---|
D---------------------------------------------------------------------|
A---------------------------------------------------------------------|
E---------------------------------------------------------------------|

KOCHANA!

E----------------------------------------------------------------------------------------
H----5/9-----10--12--10-----------5/9-----10--12--10---------10--12--9------7-7-7-7/9----
G---------9---------------11-----------9---------------11--------------------------------
D----------------------------------------------------------------------------------------
A----------------------------------------------------------------------------------------
E----------------------------------------------------------------------------------------

E----------------------------------------------------------------------------------------
H----5/9-----10--12--10-----------5/9-----10--12--10---------10--12--9------7-7-7-7/9----
G---------9---------------11-----------9---------------11--------------------------------
D----------------------------------------------------------------------------------------
A----------------------------------------------------------------------------------------
E----------------------------------------------------------------------------------------

E---------------------------------------------------------------------------------------------------|
H------9p7h9p7/5h7p5/4h5p4/2h4p2--------------------------------------------------------------------|
G-------------------------------------8-8-8-9-11--8----------------8-8-8-9-11--8--------------------|
D-----------------------------------------------------11--9-----------------------11--9-------------|
A-------------------------------------------------------------12---------------------------12--11---|
E---------------------------------------------------------------------------------------------------|



Wydaje mi się, że wszytko jest ok, jak ktoś jest w miarę osłuchany z tą piosenką to nie będzie miał problemów z zagraniem wstawek.
Dodał: kacperr16, 2011-11-12 17:19
Opracowania video z komentarzy

Dodaj komentarz ...i/lub link do filmiku video

Zaloguj się do serwisu
Ostatnie komentarze
1.
tMQ
2012-02-12 20:20
to wklej tu w komentarzach :P
2.
kacperr16
2012-02-07 23:29
nom, są niestandardowe, chciałem 2 razy już wrzucić, ale coś nie chcą wstawić ;d muszę jeszcze raz spróbować :)
3.
tMQ
2012-02-05 20:20
akordy to chyba nie standardowe E cis?
Wszelkie materiały i wypowiedzi zamieszczone na www.chords.pl są własnością ich autorów.