Zacznij systematycznie uczyć się grać na gitarze razem ze stroną Moja nauka - będziesz miał/miała do niej dostęp po zalogowaniu się w serwisie

Jałowiec - Happysad

Opracował -a: smolarek30,
Redaktor: Tomek Pietrzkowski,
Pochodzi z: http://www.chords.pl
Data publikacji: 2009-01-26 10:29
 
Moja nauka


Ups, problem :-/
Zaloguj się Mój śpiewnik


 Happysad

    Jałowiec

Akordy:
  Cała piosenka opiera się na czterech akordach:
  g d B d

intro:

E------------------|------------|-------------------------|
H------------------|---3--------|-------------------------|
G----3-------3---2-|-2---5-3-2--|---3-------3---2-------2-|
D--5---5---5---5---|------------|-5---5---5---5-------4---|
A------------------|------------|-------------------5-----|
E------------------|------------|-------------------------|

E------------------|------------|-----------------------------|
H------------------|---3--------|--------------------3h6--3h6-|
G----3-------3---2-|-2---5-3-2--|---3-------3---2-------------|
D--5---5---5---5---|------------|-5---5---5---5---------------|
A------------------|------------|-----------------------------|
E------------------|------------|-----------------------------|

 SOLO

Zaczyna się tak:

E------------------|--------------------------------------|
H--5--6-8--6-5h6p5-|-6-8-6-5----10-8-5--6-5---10-8-5-6-5--|
G------------------|--------------------------------------|
D------------------|--------------------------------------|
A------------------|--------------------------------------|
E------------------|--------------------------------------|

E---------------------------------|--------------------------------|
H--11-11-11-11-11-10--------------|-11-11-11-11-11-10--------------|
G--------------------9-9-9-9-10-12|-------------------9-9-9-9-10-12|
D---------------------------------|--------------------------------|
A---------------------------------|--------------------------------|
E---------------------------------|--------------------------------|

E---------------------------------------|---------------------------------------------
H--11-11-11-11-11-10---11-11-11-11-11-10|-11-11-11-11-11-13-13-13--13-11-11-10-10-8-8-
G---------------------------------------|---------------------------------------------
D---------------------------------------|---------------------------------------------
A---------------------------------------|---------------------------------------------
E---------------------------------------|---------------------------------------------

I główne solo:

E---------18/20\18-17------------------------18/20\18-17--------------------|
H-----15----------------15-18-20-18-15----15--------------15-18-20-18-20----|
G--15-----------------------------------15-------------------------------15-|
D---------------------------------------------------------------------------|
A---------------------------------------------------------------------------|
E---------------------------------------------------------------------------|

---------18/20\18-17--------------------------18/20\18-----------------------
------15---------------15-18-20-18-15------15--------------------------------
---15-----------------------------------15--------------14-15-14-12-14-------
-----------------------------------------------------------------------------
-----------------------------------------------------------------------------
-----------------------------------------------------------------------------

moim zdaniem opracowanie jest dokladne. Wydaje mi się że nie pominąłem żadnej 
nutki.
 Proszę o komentarze! Milego grania! pozdro!
Dodał: kacperr16, 2011-11-12 17:12
Opracowania video z komentarzy

Dodaj komentarz ...i/lub link do filmiku video

Zaloguj się do serwisu
Ostatnie komentarze
1.
Skott
2011-03-03 12:13
ja w solo głównym gram zamiast 17 progu na strunie E 14 na strunie G E--------18/20\18--------------------- H-----15------------------------------ G--15--------------14--15-18-20-18-15- D------------------------------------- A------------------------------------- E------------------------------------- I tak to jest nagrane na płycie (przynajmniej wg mojego ucha) pozdrawiam
2.
kanon1
2009-02-15 14:44
jak masz ---------------------- ---------------------- -----------2---------- -------4--------------- ----5------------------ --------------------- to powinno być ---------------------- -----------3-------- ------2------------ --0---------------- ------------------ -----------------
Wszelkie materiały i wypowiedzi zamieszczone na www.chords.pl są własnością ich autorów.