Zacznij systematycznie uczyć się grać na gitarze razem ze stroną Moja nauka - będziesz miał/miała do niej dostęp po zalogowaniu się w serwisie

Pani K (tab) - Happysad

Opracował -a: petlica,
Dodał -a: petlica,
Redaktor: petlica,
Pochodzi z: http://www.chords.pl
Data publikacji: 2012-02-05 07:29
 
Moja nauka


Ups, problem :-/
Zaloguj się Mój śpiewnik


Verse
  A              H
|------------------------------|
|-5--------------7-------------|
|-6--------------8-------------|
|-7--------------9-------------|
|------------------------------|
|------------------------------|

  gis         cis       A        H        x2
|-------4------4-----4--5--------------9---|
|-----4------------5------7----------7-----|
|---4------------6-----------6-----8-------|
|-6------------6--------7--------9---------|
|------------------------------------------|
|------------------------------------------|

  gis         cis       A        H
|-------4------4-----4--5--------------0---|
|-----4------------5------7----------7-0---|
|---4------------6-----------6-----8-------|
|-6------------6--------7--------9---------|
|------------------------------------------|
|------------------------------------------|


  gis         cis       A        Gis
|-------4------4-----4--------0------------|
|-----4------------5--------5-5---4--------|
|---4------------6--------6-------5--------|
|-6------------6-------/7---------6--------|
|------------------------------------------|
|------------------------------------------|

Pre-Ref
 cis   fis    H    Gis  x3  Gis    cis   A   Gis
|-4-----2-----------------|---------4------------0-------0-----------|
|-5-----2-----4-----4-----|--4------5----5---------4-------4---------|
|-6-----2-----4-----5-----|--5------6----6----5-------5--------5-----|
|-6-----4-----4-----6-----|--6------6----7----6-------6--------6-----|
|-4-----4-----2-----6-----|--6------4----7----6-------6--------6-----|
|-------2-----------4-----|--4-----------5----4-------4--------4-----|

Ref
 cis  fis    E   fis     cis  fis    E   Gis
|-----------------------|----------------------|
|-5----10----9----10----|-5----10----9----4----|
|-6----11----9----11----|-6----11----9----5----|
|-6----11----9----11----|-6----11----9----6----|
|-4-----9----7-----9----|-4-----9----7----6----|
|-----------------------|-----------------4----|


 cis  fis    E   fis     cis    A   Gis
|-----------------------|---------------0--------0------|-----------------------|
|-5----10----9----10----|-5-----5---------4--------4----|---------------5-------|
|-6----11----9----11----|-6-----6----5------5--5-----5--|--5------------6-------|
|-6----11----9----11----|-6-----7----6---------6--------|--6------------6-------|
|-4-----9----7-----9----|-4-----7----6---------6--------|--6------------4-------|
|-----------------------|-------5-----------------------|--4--------------------|


Sax solo
      fis    E    fis   cis    fis   E   Gis
|-----------------------|----------------------|
|------10----9----10----|-5----10----9----4----|
|------11----9----11----|-6----11----9----5----|
|------11----9----11----|-6----11----9----6----|
|-------9----7-----9----|-4-----9----7----6----|
|-----------------------|-----------------4----|

 cis  fis    E    fis    cis    A   Gis
|-----------------------|----------------------|
|-5----10----9----10----|-5-----5--------------|
|-6----11----9----11----|-6-----6----5----5----|
|-6----11----9----11----|-6-----7----6----6----|
|-4-----9----7-----9----|-4-----7----6----6----|
|-----------------------|-------5----4----4----|


Ref
 cis   fis    E    fis     cis   fis    E   Gis
|-4-----2-----0-----2-----|-4-----2-----0-----4-----|
|-5-----2-----0-----2-----|-5-----2-----0-----4-----|
|-6-----2-----1-----2-----|-6-----2-----1-----5-----|
|-6-----4-----2-----4-----|-6-----4-----2-----6-----|
|-4-----4-----2-----4-----|-4-----4-----2-----6-----|
|-------2-----0-----2-----|-------2-----0-----4-----|


 cis   fis    E    fis     cis   A   Gis
|-4-----2-----0-----2-----|-4------------0-------0-----------|
|-5-----2-----0-----2-----|-5----5---------4-------4---------|
|-6-----2-----1-----2-----|-6----6----5-------5--------5-----|
|-6-----4-----2-----4-----|-6----7----6-------6--------6-----|
|-4-----4-----2-----4-----|-4----7----6-------6--------6-----|
|-------2-----0-----2-----|----------------------------------|

End
|------------------------------------------|
|-----------5--4b5r4-----------------------|
|--------6-----------6---------------------|
|-----6-----------------6--4/2--1----------|
|--4--------------------------------2------|
|------------------------------------------|

Verse
Guitar_2
|-------------------------------------------------|
|-5------10-----4----9—10---5-----10-----4----9-7-|
|-------------------------------------------------|
|-------------------------------------------------|
|-------------------------------------------------|
|-------------------------------------------------|
 tr...............................................


|-------------------------------------------------|------------------------|
|--5-----10-----4----9-10-9-10-9-------14/16--14--|-16--------------16/----|
|-------------------------------------------------|------------------------|
|-------------------------------------------------|------------------------|
|-------------------------------------------------|------------------------|
|-------------------------------------------------|------------------------|
 tr........................................................................

Ref
Guitar_2
|----------------------------------------------------------------|
|-17-------21--22--21------19---22--17------21--19--17--16----14-|
|----------------------------------------------------------------|
|----------------------------------------------------------------|
|----------------------------------------------------------------|
|----------------------------------------------------------------|
 tr..............................................................


|----------------------------------------------------------------|
|-17-------21--22--21------19---22--17------21--19--16-----------|
|----------------------------------------------------------------|
|----------------------------------------------------------------|
|----------------------------------------------------------------|
|----------------------------------------------------------------|
 tr..............................................................


pozdr
petlica

Dodaj komentarz ...i/lub link do filmiku video

Zaloguj się do serwisu
Wszelkie materiały i wypowiedzi zamieszczone na www.chords.pl są własnością ich autorów.