Zacznij systematycznie uczyć się grać na gitarze razem ze stroną Moja nauka - będziesz miał/miała do niej dostęp po zalogowaniu się w serwisie

Ludzie chcą usłyszeć wieści złe - Happysad

Opracował -a: smolarek30,
Redaktor: Tomek Pietrzkowski,
Pochodzi z: http://www.chords.pl
Data publikacji: 2009-02-18 13:40
 
Moja nauka


Ups, problem :-/
Zaloguj się Mój śpiewnik


Akordy:

zwrotka: h  e
         h  e
         h  e
         a  G  e

potem: (na slowa "Ale ja, jestem...")   d  G  a


przejście między zwrotkami:

E--------------0--
H--------------0--
G--0-2-2-4-2-0-0--
D--------------2--
A--------------2--
E--------------0--

Solo:

E--20-19-17---20-19-15-12-|----------------------|
H-------------------------|-15-12-12-13---12-8---|
G-------------------------|--------------------9-|
D-------------------------|----------------------|
A-------------------------|----------------------|
E-------------------------|----------------------|

Zakończenie:
----------------------------------
----------------------------------
--7-4-5---8-5-5---6-5-3-3-5---5b--
----------------------------------
----------------------------------
----------------------------------

Solo które jest w drugiej części piosenki:
E--------------12-|--------------12-
H--13-12-12-10----|--13-12-12-10----
G-----------------|-----------------
D-----------------|-----------------
A-----------------|-----------------
E-----------------|-----------------

-------------|--------------------
-------------|--------------------
--10-9-7-9---|--------------7---7-
-----------7-|-7-9-9---9-10-------
-------------|--------------------
-------------|--------------------  Całość 5 razy z tym że na początku gramy tak
                                    ddelikatnie.

Zakończenie solówki:

E------------|---------------------------------|----------
H--13-12-15\-|---------------------------------|-13-13B---
G------------|-9---9-10-7---7----------------7-|----------
D------------|-----------------10-9---9-9-10---|----------
A------------|---------------------------------|----------
E------------|---------------------------------|----------

Mile widziane poprawki.

Dodaj komentarz ...i/lub link do filmiku video

Zaloguj się do serwisu
Ostatnie komentarze
1.
Ignasjo
2011-04-17 13:45
klawo chwyty, wystarczy sie wsłuchać i już mamy piekny utwór :)
Wszelkie materiały i wypowiedzi zamieszczone na www.chords.pl są własnością ich autorów.