Zacznij systematycznie uczyć się grać na gitarze razem ze stroną Moja nauka - będziesz miał/miała do niej dostęp po zalogowaniu się w serwisie

Długa droga w dół (tab) - Happysad

Dodał -a: Meghas,
Redaktor: SEBEK1304,
Pochodzi z: http://www.youtube.com/watch?v=wfTj0MhoVkE
Data publikacji: 2010-09-19 19:28
 
Moja nauka


Ups, problem :-/
Zaloguj się Mój śpiewnik


Part 1

|--------------------------10---10---------------
|7-9-10---9-7-9-10-12--10-9--9----9-10---12/10-9-
|-----------------------------10-----------------
|------------------------------------------------
|------------------------------------------------
|------------------------------------------------

Part 2

|---------------
|---------------
|7~---------7~--
|---8~---10~----
|---------------
|---------------

Part 3

(Flażolety)
|-------------
|-------------
|-------------
|7---7------7-
|-------7-----
|-------------

Part 4

|---------------------------------------
|----10--8--------10--8-------10--8-----
|7--------10--7--------10-9--------10-7-
|---------------------------------------
|---------------------------------------
|---------------------------------------

Part 5

|---------------------------------------------------------------
|---------------------------------------------------------------
|---------------------------------------------------------------
|7-7-7-7--5-5/5--7-7-7--7-5-5/5--5-5-5-5--3-3/5--7-7-7-7--5-5/5-
|7-7-7-7--5-5/5--7-7-7--7-5-5/5--5-5-5-5--3-3/5--7-7-7-7--5-5/5-
|5-5-5-5--3-3/7--5-5-5--5-3-3/7--3-3-3-3--1-1/3--5-5-5-5--3-3/7-

Part 6

|10-12-13--12-10-12-13-15--13-12-17--------17------------------
|----------------------------------17--------17----------------
|------------------------------------17--------17-18--20/18-17-
|--------------------------------------------------------------
|--------------------------------------------------------------
|--------------------------------------------------------------

Part 7

|10-12-13--12-10-12-13-15--13-12-17-17--17-17--18-18--18-18--17
|--------------------------------------------------------------
|--------------------------------------------------------------
|--------------------------------------------------------------
|--------------------------------------------------------------
|--------------------------------------------------------------

Jak grać:

Part 1 x 2

Part 2
Part 1
Part 2
Part 1
Part 2

Part 3 x 2

Part 4

Part 5 x 4

Part 6
Part 7



Credits:
Autorem opracowania jest Vanmpir
Zmieniłem względem oryginału trochę Part 5.
Dodał: kacperr16, 2011-11-12 17:09
Opracowania video z komentarzy

Dodaj komentarz ...i/lub link do filmiku video

Zaloguj się do serwisu
Ostatnie komentarze
1.
Meghas
2010-09-27 15:37
Ketchupik masz rację :) Ale czy tak czy siak te opracowanie jest bardzo dobre. Przypominam że nie moje!
2.
celtic6
2010-09-24 17:44
No dobrze że poprawiliście. Ja właśnie miałem dodać te taby ale wyprzedzili mnie. Ale super Wielkie dzięki GODNE POLECENIA
3.
Ketchupik
2010-09-23 23:32
jeszcze jedno Part 6 - pierwsza część "solo" w końcówce brzmi trochę inaczej |10-12-13--12-10-12-13-15--13-12-17--------17------------------ |----------------------------------17--------17-18-18/20/18-17- |------------------------------------17------------------------ |-------------------------------------------------------------- |-------------------------------------------------------------- |-------------------------------------------------------------- tak znacznie lepiej brzmi moim zdaniem
4.
Ketchupik
2010-09-23 23:31
Tylko part 1 się nie zgadza - wszystko co jest w part 1 powinno być grane o strunę niżej (nie 2 a 3 struna): |------------------------------------------------ |--------------------------10---10--------------- |7-9-10---9-7-9-10-12--10-9--9----9-10---12/10-9- |-----------------------------10----------------- |------------------------------------------------ |------------------------------------------------
Wszelkie materiały i wypowiedzi zamieszczone na www.chords.pl są własnością ich autorów.