Zacznij systematycznie uczyć się grać na gitarze razem ze stroną Moja nauka - będziesz miał/miała do niej dostęp po zalogowaniu się w serwisie

IQ (taby) - Happysad

Opracował -a: al4n3k,
Redaktor: Tomek Pietrzkowski,
Pochodzi z: http://www.chords.pl
Data publikacji: 2009-06-11 11:49, Poprawiono 2009-06-11 11:52
 
Moja nauka


Ups, problem :-/
Zaloguj się Mój śpiewnik


pierwsze taby które napisałem, ale mam nadzieję, że słuch mam dobryy i nie ma 
żadnych błędów :)

to poczatek tak leci mniej więcej do ~1:02

E|-----------------0-0-------------|-----------------0-0-------|
H|-1-1-0---------------3-1---------|-1-1-0---------------3-1-0-|
G|-------2-----------------2-2-2-4-|-------2-------------------|
D|---------3-3-3-3-----------------|---------3-3-3-3-----------|
A|---------------------------------|---------------------------|
E|---------------------------------|---------------------------|


E|------------------------------------|--------------------------------------|
H|------------------------------------|--------------------------------------|
G|----9---10---12-10-9-10-9-7-5-7-----|9---10-12-10-9---14--12-14-12--9-10-9-|
D|------------------------------------|--------------------------------------|
A|------------------------------------|--------------------------------------|
E|------------------------------------|--------------------------------------|


E|-------------------------------------|
H|-------------------------------------|
G|9---10-12-10-9--5-7--9---10-12-10-9--|
D|-------------------------------------|
A|-------------------------------------|
E|-------------------------------------|

Dodaj komentarz ...i/lub link do filmiku video

Zaloguj się do serwisu
Wszelkie materiały i wypowiedzi zamieszczone na www.chords.pl są własnością ich autorów.