Zacznij systematycznie uczyć się grać na gitarze razem ze stroną Moja nauka - będziesz miał/miała do niej dostęp po zalogowaniu się w serwisie

W piwnicy u dziadka (intro tab) - Happysad

Opracował -a: uniquetab,
Dodał -a: uniquetab,
Redaktor: Tomek Pietrzkowski,
Pochodzi z: http://www.chords.pl
Data publikacji: 2010-01-16 06:59
 
Moja nauka


Ups, problem :-/
Zaloguj się Mój śpiewnik


znaczki '/' to pauza
znaczki '~' to niech brzmi (nie tlumic, let ring)
'020' to hammer on i pull off szybko po sobie z pustej na 2 progu

e|---0-/-0---0---0---0-/-0---0---~-|
H|---1-/-1---1---1---1-/-1---1---~-|
G|---0-/-0---0---0---0-/-0---0---~-|
D|-----/-------2-------/-------0-~-|
A|-3---/---3-------3---/---3-----~-|
E|-----/---------------/---------~-|

e|---0-/-0---0---0---0-/-0---------|
H|---1-/-1---1---1---1-/-1---------|
G|---2-/-2---2---2---2-/-2-020-----|
D|-----/-------2-------/-------020-|
A|-0---/---0-------0---/-----------|
E|-----/---------------/-----------|

a tutaj intro w petli do pocwiczenia
http://w481.wrzuta.pl/audio/88k5WBDKQ3K/wpiwnicyintro
Dodał: Bartek Pawłowski, 2015-02-20 00:08
Opracowania video z komentarzy

Dodaj komentarz ...i/lub link do filmiku video

Zaloguj się do serwisu
Ostatnie komentarze
1.
uniquetab
2010-01-16 09:53
mala poprawka: chyba jednak struna 'e' nie jest w ogole grana, jak dla mnie brzmi bez niej bardziej jak w oryginale i lepiej i wersja dla guitar pro http://www.sendspace.pl/file/a5ac86750466d5c4f536920
Wszelkie materiały i wypowiedzi zamieszczone na www.chords.pl są własnością ich autorów.