Zacznij systematycznie uczyć się grać na gitarze razem ze stroną Moja nauka - będziesz miał/miała do niej dostęp po zalogowaniu się w serwisie

Damy radę - Happysad

Opracował -a: smolarek30,
Redaktor: Miłosz,
Pochodzi z: http://www.chords.pl
Data publikacji: 2009-02-25 13:26
 
Moja nauka


Ups, problem :-/
Zaloguj się Mój śpiewnik


Happysad

 Damy radę

Akordy:

 WSTĘP: a G a
        C e
        a G a
        C e
        a G e:
ZWROTKA:

Będą lata...    a G a
nie klejące...  C e a
poprzecinane... a e a

REFREN:

Niedopasowane ale... C G a F
Trzymajmy się...     C G a F
Kochanie damy...     C G a F
Trzymajmy się...     C G a F
No ale...            e

PRZEJŚCIE:
nigdy nie każ...     a G a
nigdy nia każ...     a G a
nigdy nie każ...     a G a
bo jeszcze...        c e      a G a

intro:
E------------------|----------------------
H------------------|----------6-5---6-5---
G--2-2-2-2-0-2-0---|--5-5-5-5-----5-----5-
D----------------2-|----------------------
A------------------|----------------------
E------------------|----------------------

E------------------|----------------------
H------------------|----------6-5---6-5---
G--2-2-2-2-0-2-0---|--5-5-5-5-----5-----5-
D----------------2-|----------------------
A------------------|----------------------
E------------------|----------------------

E------------------|
H------------------|
G--2-2-2-2-0-2-0---|
D----------------2-|
A------------------|
E------------------|

Wstawka która jest grana w przejściu:

E------------------|
H------------------|
G--2-2-2-2-0-2-0---|
D----------------2-|
A------------------|
E------------------| 4 razy...

SOLO:

wstawki przed głównym solo:

E-------12-|-----------------12-|
H----------|-13-12-10-8-12-8----|
G----------|--------------------|
D--7-------|--------------------|
A-----7----|--------------------|
E----------|--------------------|

E-----12-----12-10---------|
H--13-----13-------12-8-10-|
G--------------------------|
D--------------------------|
A--------------------------|
E--------------------------|

SOLO
E-------------------------------|
H-------------------------------|
G-------------------------------|
D--7--7-7-10--10-10--10-9-5-7-7-|
A-------------------------------|
E-------------------------------|

-----------------------------|
-----------------------------|
-----------------------------|
---------------------------9-|
--7-7-7-10--10-10-12-10-12---|
-----------------------------|6 razy

Miłego grania:-)
mile widziane poprawki. pozdro

Dodaj komentarz ...i/lub link do filmiku video

Zaloguj się do serwisu
Ostatnie komentarze
1.
gypsygirl
2012-11-30 13:52
Tak, wersja djsliz jest poprawna, starczy posłuchać.
2.
Mateusz_bandi
2012-11-13 16:28
djsliz ma 100% racji! Progresja akordów jest dokładnie taka jak napisał.
3.
bunio220
2011-09-08 20:11
wersja smolarka jest dobra i nie wiem skąd ta wersja djsliz wogóle nie pasuje
4.
djsliz
2011-05-23 16:35
Wstęp: a G a d G G a G E Zw a F a F a F C E a F a F a F C E Ref: a F C E x4 a G a a G a a G a d G a G E
5.
smolarek30
2009-03-13 17:30
sory.. pomyłka... we wstępie ostatni akord to E
Wszelkie materiały i wypowiedzi zamieszczone na www.chords.pl są własnością ich autorów.