Zacznij systematycznie uczyć się grać na gitarze razem ze stroną Moja nauka - będziesz miał/miała do niej dostęp po zalogowaniu się w serwisie

Bakteryja (solo) - Happysad

Opracował -a: migfulcrum,
Redaktor: Tomek Pietrzkowski,
Pochodzi z: http://www.chords.pl
Data publikacji: 2008-05-13 10:45
 
Moja nauka


Ups, problem :-/
Zaloguj się Mój śpiewnik


Cos dla leniwych. Jesli macie problem ze znalezieniem solowki w necie polecam 
samemu rozpykać. To nic trudnego a potem ma się satysfakcje :)

E||----------------------------------------------------------
B||----------------------------------------------------------
G||-------------7--7-9-9-9--10--10----------9-7-----7--------
D||-7--7-9-9-10--------------------9-9-10--------10----10--9-
A||----------------------------------------------------------
E||----------------------------------------------------------

E||--------------------------------------------------------------------
B||-10--10-10-10-13-12-------------------------------------------------
G||---------------------9--9-9-9--10-9-7-10-9-7-10-9-7-10-9-7-10-9-7-9-
D||--------------------------------------------------------------------
A||--------------------------------------------------------------------
E||--------------------------------------------------------------------

E||-------------------------------
B||-------------------------------
G||-10-9-7-9-7----7---------------
D||------------10---10-9-10-9-10--
A||-------------------------------
E||-------------------------------

E||-12-10----10----------------------------
B||-------13----13-12-13-12-10-12-10-9-12--
G||----------------------------------------
D||----------------------------------------
A||----------------------------------------
E||----------------------------------------

Dodaj komentarz ...i/lub link do filmiku video

Zaloguj się do serwisu
Ostatnie komentarze
1.
michael0505
2010-10-23 22:21
JA rozpykałem;D to SOLO leci od 2:18
2.
smolarek30
2008-11-08 17:15
dobre:-))). a może spróbuj teraz rozpykać piosenkę kancelarii pt. zabiorę cię? szczególnie solo... Bo nie daje rady:-(((
Wszelkie materiały i wypowiedzi zamieszczone na www.chords.pl są własnością ich autorów.