Zacznij systematycznie uczyć się grać na gitarze razem ze stroną Moja nauka - będziesz miał/miała do niej dostęp po zalogowaniu się w serwisie

Wszystko jedno - Happysad

Opracował -a: denu,
Dodał -a: baskah,
Data publikacji: 2005-03-11 00:22
 
Moja nauka


Ups, problem :-/
Zaloguj się Mój śpiewnik


e
Ostatni...
H
zaraz...
e
To było..
H
chwaliłas...
C                e H
To, że stałem...

       G
      A miało...
                 a
      miało...
                 C
      i ociekac...
                 e H
      Mialo...


denu:
 Solo na końcu (2 pierwsze linie bez przesteru grane sš w każdym refrenie):

E|--------------------------------------------------------------------
H|--------------------------------------------------------------------
G|--12-11-9-------------------12-11-9---------------------------------
D|----------12-9----9----9------------12-10----10----10---------------
A|---------------10---10---10---------------12----12----12------------
E|--------------------------------------------------------------------

E|--------------------------------------------------------------------
H|----------------------------------------------12--------------------
G|--12-11-12-14---12----12----12----14-12-11-12-----12/14-12-11-------
D|-------------------14----14----14-----------------------------------
A|--------------------------------------------------------------------
E|--------------------------------------------------------------------

E|------------- --15----15----15-------------------12----------------- |
H|------------- -----12----12----12-12-13-15-13-10----13-10-13-10----- |
G|--12-11-9---- ------------------------------------------------------ |
D|----------12- ------------------------------------------------------ |
A|------------- ------------------------------------------------------ |
E|------------- ------------------------------------------------------ |
                                                                       |
E|---------------------------------------------15----15-17-15-17-19--- |
H|--13/15-15--15/17-17-15-15-17-17-15-15-17-17----17------------------ |
G|-------------------------------------------------------------------- |
D|-------------------------------------------------------------------- |
A|-------------------------------------------------------------------- |
E|-------------------------------------------------------------------- | x2

 A na zakończenie:

E|---------------------   --------------------------------------------
H|---------------------   -12-12-10-8-7-7-8-10-12-12-10-8-7-7-8-7-----
G|-12-12-11-9-8-8-9-11-   --------------------------------------------
D|---------------------   --------------------------------------------
A|---------------------   --------------------------------------------
E|---------------------x3 --------------------------------------------


E|---------------------   --------------------------------------------
H|---------------------   -12-12-10-8-7-7-8-10-12-12-10-8-7-7-8-7-----
G|-12-12-11-9-8-8-9-11-   ----------------------------------------8-9-
D|---------------------   --------------------------------------------
A|---------------------   --------------------------------------------
E|---------------------x2 --------------------------------------------


E|------------------------
H|--10-10/12-12-12/17-17--
G|------------------------
D|------------------------
A|------------------------
E|------------------------

Dodaj komentarz ...i/lub link do filmiku video

Zaloguj się do serwisu
Ostatnie komentarze
1.
Dejw
2009-05-13 17:23
Przecież we wstępie jest to samo solo co w refrenie - a to jest w opracowaniu. Nie spojrzałem wcześniej do opracowania i zdążyłem to już rozpisać. Grane w niższej, chociaż mniej wygodnej pozycji: E| -3p2--0-------------------------2/3--2--0--------------------------- H| ---------3--0-----0-----0------------------3--1-----1-----1--------- G| ---------------0-----0-----0---------------------2-----2-----2------ D| -------------------------------------------------------------------- A| -------------------------------------------------------------------- E| -------------------------------------------------------------------- . E| -2/3--2--3--5--3-----3-----3-------5--3--2--3--7----------5--------- H| ------------------5-----5-----5-------------------8--5-------8--7--- G| -------------------------------------------------------------------- D| -------------------------------------------------------------------- A| -------------------------------------------------------------------- E| --------------------------------------------------------------------
2.
janznajdek
2009-05-13 16:38
Wie ktoś jak zagrać wstęp do piosenki?
3.
kinslayer
2008-05-22 10:23
spróbujcie zamiast H-dur zagrać h-mol
4.
makaron5
2008-03-20 17:55
ustawiłem akordy nad literami ale mi ucięło .. sorry.
5.
makaron5
2008-03-20 17:53
e H e ostatni raz widzialem Cie, zaraz przypomne sobie gdzie H e H e to było chyba na mieście, chwalilas sie biletem do szwecji H C e H to że stałem z boku już nie liczło sieeee ---------- Moim zdaniem tak powinna isc zmiana chwytow :)
6.
asiulka13
2007-11-02 21:52
W ogóle te chwyty mi nie pasują... Ups... refren tak ale zrowtka nie bardzo...:(
7.
Olololololo
2007-08-28 14:47
Czy mógłby ktoś napisać tabulaturę do zwrotki? ;] z góry dzięki ;]
8.
adam_98
2006-10-16 23:51
wsłuchaj sieuwarznie w piosenkę. W tym momencie cza włączyć przester :)
9.
Mateusz_Matt
2006-05-21 20:03
co oznacza ta przerwa w 3 wersie po 12,11,9 ?? :)
10.
proporcowy
2006-03-12 14:14
hmm. ja bym zrobil tak: e ostatni... H zaraz... e H e to było... H e H chwaliłaś.... C e H to że stalem... --pozdro dla wszystkich--
Wszelkie materiały i wypowiedzi zamieszczone na www.chords.pl są własnością ich autorów.