Zacznij systematycznie uczyć się grać na gitarze razem ze stroną Moja nauka - będziesz miał/miała do niej dostęp po zalogowaniu się w serwisie

z pamiętnika młodej zielarki - Happysad

Opracował -a: trollkien0,
Redaktor: Miłosz,
Pochodzi z: http://www.chords.pl
Data publikacji: 2007-03-25 00:10
 
Moja nauka


Ups, problem :-/
Zaloguj się Mój śpiewnik


zielarka...

|---8--7-5-3--1-3-1-3/5-3-------------------
|--------------------------5--3-1-0-1-------
|-------------------------------------------
|-------------------------------------------
|-------------------------------------------


|--8--7-5-3--1-3-1-3/5-3--------------12-10-7-8--7-5-3--1-3-1-3/5-3--------------
|------------------------5--3-1-0-1-2-------------------------------5--3-1-0-1---
|--------------------------------------------------------------------------------
|--------------------------------------------------------------------------------
|--------------------------------------------------------------------------------
|--------------------------------------------------------------------------------

reszta jest Pana Adolfa (moja drobna przeróbka:))
----------------------------------------------------
----------------------------------------------------
--5-5-7-9-9-10-9-7-7-5-4-5-4-2-4-5-7-||-7-9-5-4----- x2
----------------------------------------------------
----------------------------------------------------
----------------------------------------------------
koniec:
----------------------------------------------------
----------------------------------------------------
-5-7-9-5-4-2--------------------------------------
----------------------------------------------------
----------------------------------------------------
----------------------------------------------------

Dodaj komentarz ...i/lub link do filmiku video

Zaloguj się do serwisu
Wszelkie materiały i wypowiedzi zamieszczone na www.chords.pl są własnością ich autorów.