Zacznij systematycznie uczyć się grać na gitarze razem ze stroną Moja nauka - będziesz miał/miała do niej dostęp po zalogowaniu się w serwisie

Słońce - Happysad

Opracował -a: Jakub,
Redaktor: Tomek Pietrzkowski,
Pochodzi z: http://www.chords.pl
Data publikacji: 2008-05-23 17:49
 
Moja nauka


Ups, problem :-/
Zaloguj się Mój śpiewnik


Gitara pierwsza-clean
--------------------------------0--0----------------------------------------
--------------------------------1--0----------------------------------------
--------------------------------2--0----------------------------------------
-7-7-7-7-7-7-7-7--2-2-2---------2--2---7-7-7-7-7-7-7-7--2-2-2--5-5-5--------
-5-5-5-5-5-5-5-5--4-4-4--5-5-5--0--2---5-5-5-5-5-5-5-5--4-4-4--3-3-3--------
-------------------------3-3-3--0--0----------------------------------------

Gitara druga-clean
-8-7-5-7-5-----------
-----------8-5-------
---------------------
---------------------
---------------------
---------------------

Gitara pierwsza w czasie zwrotki gra takie akordy:

a  e  d  G

pod koniec zwrotki powtarzają sie akordy d G

Refren-gitara pierwsza:

 a e

 a e

 C G a e

 d e

Gitara druga solo-przester+wah wah

----------------------------------------------------------------------------
----------------------------------------------------------------------------
--/9-9-7-7-5-5-4---9-7-5-4-5-4-0---------9-7----------------9-7-5-4-5-4-0---
---------------------------------7-7-7-7-----9-9-9-9--10-9------------------
----------------------------------------------------------------------------
----------------------------------------------------------------------------

----------------------------------------------------------------------------
----------------------------------------------------------------------------
---------9-7--------------------9-7-----------------------------------------
-7-7-7-7----9-9-9-9-10--7-7-7-7-----9---------------------------------------
----------------------------------------------------------------------------
----------------------------------------------------------------------------

Gitara druga na sam koniec gra z użyciem przesteru taki riff:

----------------------------------------------------------------------------
----------------------------------------------------------------------------
---5-----2-----7--9---------9--------9-9------------------------------------
---5--5--2--2--7--9------7--9----7-7-9-9-7-7-7-7----------------------------
---3--5--0--2--5--7--x1--7--7-x4-7-7-7-7-7-7-7-7----------------------------
------3-----0------------5-------5-5-----5-5-5-5----------------------------
Dodał: michael2222, 2012-05-08 21:24
Opracowania video z komentarzy

Dodaj komentarz ...i/lub link do filmiku video

Zaloguj się do serwisu
Wszelkie materiały i wypowiedzi zamieszczone na www.chords.pl są własnością ich autorów.