Zacznij systematycznie uczyć się grać na gitarze razem ze stroną Moja nauka - będziesz miał/miała do niej dostęp po zalogowaniu się w serwisie

Psychologa! - Happysad

Opracował -a: Tomasz Gołąb,
Redaktor: Tomek Pietrzkowski,
Pochodzi z: http://www.chords.pl
Data publikacji: 2009-04-26 00:01
 
Moja nauka


Ups, problem :-/
Zaloguj się Mój śpiewnik


Happysad - Psychologa!
Opracowanie to powstało z obejrzenia wielu filmików i własnego słuchu.

Wstęp:
E|---------------------------------------------------------|
H|---------------------------------------------------------|
G|---------------------------------------------------------|
D|-9-9-9-9-9-9-9-9-7-7-7-7-10-10-14-14---------------------|
A|---------------------------------------------------------|
E|---------------------------------------------------------|

Solo:

E|--------------------------------------------------------------------------|
H|-------------------------------------------------------------------- -----|
G|--------------------------------------------------------------------------|
D|-9--9-10-9-7-5-4-5--9-9-10-9-7-5-4-5-----9-10-9-7-5-4-5-9--9-10-9-7-5-4-5-|
A|--------------------------------------------------7-----------------------|
E|--------------------------------------------------------------------------|

Zwrotka:

E|---------------------------- ---|
H|----------------------------  --|
G|--------------------------------|      x3
D|-x-9-x-9---x-7-x-7---x-9-x-9----|
A|-x-7-x-7---x-7-x-7---x-9-x-9----|
E|-x-7-x-7---x-5-x-5---x-7-x-7----|

Zakończenie zwrotki:

E|----------------|
H|----------------|
G|----------------|
D|-5-----9--------|
A|-5-----9--------|
E|-3-----7--------|

Refren:

E|------------------------------------------------|
H|------------------------------------------------|
G|------------------------------------------------|
D|--9--55--77----|-x-9-x-9---x-5-x-5---x-7-x-7----|
A|--7--77--99----|-x-7-x-7---x-7-x-7---x-9-x-9----|
E|--7--55--77----|-x-7-x-7---x-5-x-5---x-7-x-7----|

Zakończenie refrenu:

E|-------------------------- ---|
H|--------------------------- --|
G|---------------------------- -|
D|-3----7----3---7----3----5---9|
A|-5----9----5---9----5----7---9|
E|-3----7----3---7----3----5---7|

Dodaj komentarz ...i/lub link do filmiku video

Zaloguj się do serwisu
Wszelkie materiały i wypowiedzi zamieszczone na www.chords.pl są własnością ich autorów.