Zacznij systematycznie uczyć się grać na gitarze razem ze stroną Moja nauka - będziesz miał/miała do niej dostęp po zalogowaniu się w serwisie

Niezapowiedziana - Happysad

Opracował -a: tMQ,
Dodał -a: tMQ,
Redaktor: Tomek Pietrzkowski,
Pochodzi z: http://www.chords.pl/
Data publikacji: 2012-09-23 17:50, Poprawiono 2012-09-23 17:55
 
Moja nauka


Ups, problem :-/
Zaloguj się Mój śpiewnik


C F

h------------------
g---1^-0-----------
d--------2-0-------
a------------3-----

po tym gitarowym motywie można na F dodać:

d----------------
a---3/5/7--7/5---
e----------------


Mówią żeś wredna i niebezpieczna... C
Że prędzej czy później staniesz w moich drzwiach... a    a G

A ja owijam wokół palca wolny czas F a G
Owijam wokół palca chłodny wiatr   F a G

e--1-----    -0-----    -3-------
h----1--- 4x ---1--- 2x ---3----- 2x
g------2-    -----2-    -----0---

I miejsce dla ciebie mam F e C
Przyjedź obudź nas a d e
Na wieczność

h---------------------------
g---2-0---2-0----0----------
d-------2----------2-0------
a----------------------3----


Chodź, chodź, chodź, chodź G
Niby niechciana a

Dodaj komentarz ...i/lub link do filmiku video

Zaloguj się do serwisu
Ostatnie komentarze
1.
seisnueve
2013-04-29 11:15
Musiałem przepisać to po swojemu by zrozumieć :D Szukałem akordów. Dzieki !
Wszelkie materiały i wypowiedzi zamieszczone na www.chords.pl są własnością ich autorów.