Zacznij systematycznie uczyć się grać na gitarze razem ze stroną Moja nauka - będziesz miał/miała do niej dostęp po zalogowaniu się w serwisie

Miłość - Happysad

Opracował -a: chamier,
Redaktor: Tomek Pietrzkowski,
Data publikacji: 2009-01-14 11:47
 
Moja nauka


Ups, problem :-/
Zaloguj się Mój śpiewnik


E|-------------------------|-------------------------|
H|-------------------------|-------------------------|
G|-------------------------|-------------------------|
D|-------------------------|-------------------------|
A|-----7-7-7-7-5-5-7-8-7---|-----7-7-7-7-5-5-7-8-7---|
E|-5-5-------------------7-|-5-5-------------------7-|

E|-------------------------|-------------------------|
H|-------------------------|-------------------------|
G|-------------------------|-------------------------|
D|-------------------------|-----------------------9-|
A|-----7-7-7-7-5-5-7-8-7---|-----7-7-7-7-5-5-7-8-7---|
E|-5-5-------------------7-|-5-5---------------------|
Dodał: Bartek Pawłowski, 2015-04-26 23:11
Opracowania video z komentarzy

Dodaj komentarz ...i/lub link do filmiku video

Zaloguj się do serwisu
Wszelkie materiały i wypowiedzi zamieszczone na www.chords.pl są własnością ich autorów.