Zacznij systematycznie uczyć się grać na gitarze razem ze stroną Moja nauka - będziesz miał/miała do niej dostęp po zalogowaniu się w serwisie

30 raz - Happysad

Opracował -a: jamniok,
Redaktor: Miłosz,
Pochodzi z: http://www.chords.pl
Data publikacji: 2005-12-17 00:51
 
Moja nauka


Ups, problem :-/
Zaloguj się Mój śpiewnik


intro
e|--------------------s15-14-12-10-1010-9-99-10-------
b|-7-5------------------------------------------------
g|--7-4-44-6-66-7-77----------------------------------
d|----------------------------------------------------
a|----------------------------------------------------
e|----------------------------------------------------

mini solo
e|-----7-77-5-7-5------7-77-9-7-5---------------------
b|--7-5----------7--7-5----------7-7-7-7-5/3----------
g|---7---------------7-----------------------6-4/6h7--
d|----------------------------------------------------
a|----------------------------------------------------
e|----------------------------------------------------

e|----------------------------------------------------
b|-------5/7-7--5-5-----------------------------------
g|-7-7-7------7-----7-6~~~---------------------------
d|----------------------------------------------------
a|----------------------------------------------------
e|----------------------------------------------------

Dodaj komentarz ...i/lub link do filmiku video

Zaloguj się do serwisu
Ostatnie komentarze
1.
trollkien0
2007-03-18 13:53
|--------------------------------------------------10-9-7-5-7/9--9-------------------------- |--3---3-5-7--7-7-7-5--5-3-2-3-3/8-8-7-8-7---------------------7-7--7-5-2-3-3/8-8--- |---------------------------------------------------------------------------------------------- |---------------------------------------------------------------------------------------------- |---------------------------------------------------------------------------------------------- |---------------------------------------------------------------------------------------------- |--------------------------------------------------10-9-7-5-7/9--9----9----10-9------------------------- |--3---3-5-7--7-7-7-5--5-3-2-3-3/8-8-7-8-7---------------------7----7---------7-5-3-2-3-5-3--2---- |------------------------------------------------------------------------------------------------------------- |------------------------------------------------------------------------------------------------------------- |------------------------------------------------------------------------------------------------------------- |-------------------------------------------------------------------------------------------------------------
Wszelkie materiały i wypowiedzi zamieszczone na www.chords.pl są własnością ich autorów.