Zacznij systematycznie uczyć się grać na gitarze razem ze stroną Moja nauka - będziesz miał/miała do niej dostęp po zalogowaniu się w serwisie

Nie będziem płakać - Happysad

Opracował -a: Jacek Kuziak,
Dodali: Jacek Kuziak, Natalia Sowińska,
Redaktor: Seba,
Pochodzi z: http://www.chords.pl/
Data publikacji: 2013-03-18 09:47
 
Moja nauka


Ups, problem :-/
Zaloguj się Mój śpiewnik


h , D , A , h

I tak przez całą piosenkę.

To moje pierwsze opracowanie także poprawki mile widziane :)

Miłego grania życzę :)

Tab dodał użytkownik Jacek Kuziak:

Zagrywka między zwrotkami:
e|---------14--14--15--14--------------------------------------|
B|-15--17------------------15--15--17--15--14--15--------------|
G|--------------------------------------------------12--11-----|
D|-------------------------------------------------------------|
A|-------------------------------------------------------------|
E|-------------------------------------------------------------|
Refren:
e|----------10--------10----10------|
B|----------------------------------|
G|--11--11-----11--11---------------| 2x
D|----------------------------------|
A|----------------------------------|
E|----------------------------------|

e|-------9-------9----9----|
B|-10-10---10-10---10------|
G|-------------------------|
D|-------------------------|
A|-------------------------|
E|-------------------------|

e|-------------------------|
B|-------12-------12----12-|
G|-11-11----11-11----11----|
D|-------------------------|
A|-------------------------|
E|-------------------------|
Refren powyżej gramy dwa razy, gdzie przy drugim razie, zamiast ostatniej części kończymy:
e|-------------------|
B|-------------------|
G|-9-9-9--7-7-7-7-7--|
D|-------------------|
A|-------------------|
E|-------------------|
Dodał: Natalia Sowińska, 2013-03-18 09:49
Opracowania video z komentarzy

Dodaj komentarz ...i/lub link do filmiku video

Zaloguj się do serwisu
Ostatnie komentarze
1.
denu
2016-10-20 20:11
przed refrenem jest jeszcze grane na zmianę e h
Wszelkie materiały i wypowiedzi zamieszczone na www.chords.pl są własnością ich autorów.