Zacznij systematycznie uczyć się grać na gitarze razem ze stroną Moja nauka - będziesz miał/miała do niej dostęp po zalogowaniu się w serwisie

Tak się boję (solo) - Happysad

Opracował -a: bob11111,
Redaktor: Tomek Pietrzkowski,
Pochodzi z: http://www.chords.pl
Data publikacji: 2008-05-23 17:49
 
Moja nauka


Ups, problem :-/
Zaloguj się Mój śpiewnik


zwrotka:

E|---------------------------------------------------------|
H|--9--8-6-8-6---9--8-6-8-6--------------------------------|
G|---------------------------4--5-7-8--4--5-7-8------------|
D|---------------------------------------------------------|
A|---------------------------------------------------------|
E|---------------------------------------------------------|

ref. i solo 1:
E|---------------------------------------------------------|
H|---------------------------------------------------------|
G|-5---7---10--10--8-7---5-4-5--7-5--7/8-7--7h8h10-8-7-7\5-|
D|---------------------------------------------------------|
A|---------------------------------------------------------|
E|---------------------------------------------------------|

koniec zwrotki:

E|-----------------|
H|-9--8-9-8--\6-\3-|
G|-----------------|
D|-----------------|
A|-----------------|
E|-----------------|

solo 2:
E|--12/15--14-12-14-----------------------------|  |
H|------------------11~---12/15--14-15-14-14----|  |
G|-------------------------------------------12-|  |
D|----------------------------------------------|  |
A|----------------------------------------------|  |
E|----------------------------------------------|  |
                                                   |x2
E|----------------------------------------------|  |
H|----------------------------------------------|  |
G|-10/12-10-10-13-12----------------------------|  |
D|-------------------12-10-10h12-12-12-13-12-10-|  |
A|----------------------------------------------|  |
E|----------------------------------------------|  |

E|--17~--15~--10~----|
H|-------------------|
G|-------------------|
D|-------------------|
A|-------------------|
E|-------------------|

Dodaj komentarz ...i/lub link do filmiku video

Zaloguj się do serwisu
Wszelkie materiały i wypowiedzi zamieszczone na www.chords.pl są własnością ich autorów.