Zacznij systematycznie uczyć się grać na gitarze razem ze stroną Moja nauka - będziesz miał/miała do niej dostęp po zalogowaniu się w serwisie

30 raz - Happysad

Opracował -a: trollkien0,
Redaktor: Miłosz,
Pochodzi z: http://www.chords.pl
Data publikacji: 2007-03-25 00:10
 
Moja nauka


Ups, problem :-/
Zaloguj się Mój śpiewnik


końcowe solo...
|---------------------------------------------10-9-7-5-7/9--9-----------------------
|--3---3-5-7--7-7-7-5--5-3-2-3-3/8-8-7-8-7---------------------7-7--7-5-2-3-3/8-8---
|-----------------------------------------------------------------------------------
|-----------------------------------------------------------------------------------
|-----------------------------------------------------------------------------------
|-----------------------------------------------------------------------------------



|----------------------------------------------10-9-7-5-7/9--9----9----10-9---------------------
|--3---3-5-7--7-7-7-5--5-3-2-3-3/8-8-7-8-7---------------------7----7---------7-5-3-2-3-5-3--2--
|-----------------------------------------------------------------------------------------------
|-----------------------------------------------------------------------------------------------
|-----------------------------------------------------------------------------------------------
|-----------------------------------------------------------------------------------------------

i jeszcze na samym końcu
|----------------------------------
|---2-3-5-7----------------------
|----------------------------------
|----------------------------------
|----------------------------------
|----------------------------------

Dodaj komentarz ...i/lub link do filmiku video

Zaloguj się do serwisu
Wszelkie materiały i wypowiedzi zamieszczone na www.chords.pl są własnością ich autorów.