Zacznij systematycznie uczyć się grać na gitarze razem ze stroną Moja nauka - będziesz miał/miała do niej dostęp po zalogowaniu się w serwisie

Tak się boję - Happysad

Opracował -a: jarekcalka,
Dodał -a: jarekcalka,
Redaktor: Tomek Pietrzkowski,
Pochodzi z: http://www.chords.pl/
Data publikacji: 2019-08-18 14:00
 
Moja nauka


Ups, problem :-/
Zaloguj się Mój śpiewnik
------------------------------------------------------------------------------------------------------
------------------------------------------------------------------------------------------------------
------------------------------------------------------------------------------------------------------
--5---5/10---10/12---12---15--15--15---13--12---10--9--10--12---10---10/13--13--12--12h13h15--13---12-
------------------------------------------------------------------------------------------------------
------------------------------------------------------------------------------------------------------

------------------------------------------------------------------------------------------------------
------------------------------------------------------------------------------------------------------
------------------------------------------------------------------------------------------------------
--5---5/10---10/12---12---15--15--15---13--12---10--9--10--12---10---10/13--13--12--------------------
------------------------------------------------------------------------------------------------------
------------------------------------------------------------------------------------------------------

------------------------------------------------------------------------------------------------------
----------------------------------------------------9---9/10--12---13-----9---9/10--12---13-----------
--/13----12---10---12--10------/13----12---10---12----------------------------------------------------
------------------------------------------------------------------------------------------------------
------------------------------------------------------------------------------------------------------
------------------------------------------------------------------------------------------------------

------------------------------------------------------------------------------------------------------
----------------------------------------------------9---9/10--12---13-----9---9/10--12---13-----------
--/13----12---10---12--10------/13----12---10---12----------------------------------------------------
------------------------------------------------------------------------------------------------------
------------------------------------------------------------------------------------------------------
------------------------------------------------------------------------------------------------------

------------------------------------------------------------------------------------------------------
------------------------------------------------------------------------------------------------------
--/13----12h13h12----15p14p12-------------------------------------------------------------------------
------------------------------5-5/10-10/12--12--15--15--15--13--12--10--9--10--12---10--10/13--13--12-
------------------------------------------------------------------------------------------------------
------------------------------------------------------------------------------------------------------

---/16--15-------15-----------------------------------------------------------------------------------
------------16-----------/16-16-15-16--15-15----------------------------------------------------------
--------------------12-----------------------12-/12--10-10-13--12-------------------------------------
------------------------------------------------------------------10-10-10h12-12-12-12-12-13--12-10---
------------------------------------------------------------------------------------------------------
------------------------------------------------------------------------------------------------------

-/16--15-----15---------------------------------------------------------------------------/16-/15-----
---------16------/16-16-15-16--15-15--------------------------------------------------------------/15-
--------------12--------------------12-/12--10-10-13--12----------------------------------------------
---------------------------------------------------------10-10-10h12-12-12-12-12-13--12-10------------
------------------------------------------------------------------------------------------------------
------------------------------------------------------------------------------------------------------

------------------------------------------------------------------------------------------------------
---12/13---15-15--18-18-18--16--15--13-13--12--13--15--13--13/16--16--15--15h16h18--16--15------------
------------------------------------------------------------------------------------------------------
------------------------------------------------------------------------------------------------------
------------------------------------------------------------------------------------------------------
------------------------------------------------------------------------------------------------------

------------------------------------------------------------------------------------------------------
---12/13---15-15--18-18-18--16--15--13-13--12--13--15--13--13--15--15--15--15-------------------------
------------------------------------------------------------------------------------------------------
------------------------------------------------------------------------------------------------------
------------------------------------------------------------------------------------------------------
------------------------------------------------------------------------------------------------------


                           Szybkie kostkowanie
-----------------------------------------------------------------------------------------------------
           |                       |                  |
           |                       |                  |
           V                       v                  v
--------------------------------------------15--------------------------------------------------------
-----/13---13---15--16------/13---13---15------/13---13---15--16--------------------------------------
----------- ˝-----------12-------- ˝----------------- ˝-----------/10--8-7-8-7-8-8/10-----------------
------------------------------------------------------------------------------------------------------
------------------------------------------------------------------------------------------------------
------------------------------------------------------------------------------------------------------


                           Szybkie kostkowanie
-----------------------------------------------------------------------------------------------------
           |                       |                  |
           |                       |                  |
           V                       v                  v
--------------------------------------------15--------------------------------------------------------
-----/13---13---15--16------/13---13---15------/13---13---15--16--------------------------------------
----------- ˝-----------12-------- ˝----------------- ˝----------/12--/13-----------------------------
------------------------------------------------------------------------------------------------------
------------------------------------------------------------------------------------------------------
------------------------------------------------------------------------------------------------------
Dodał: jarekcalka, 2019-08-18 14:04
Opracowania video z komentarzy

Dodaj komentarz ...i/lub link do filmiku video

Zaloguj się do serwisu
Ostatnie komentarze
1.
Tomek Pietrzkowski
2019-08-19 20:30
Hej Jarku, To niesamowite, że założyłeś konto w 2005 roku i właśnie wrzuciłeś swoje pierwsze opracowanie! Wow, dziękuję bardzo. pozdrawiam, Tomek
Wszelkie materiały i wypowiedzi zamieszczone na www.chords.pl są własnością ich autorów.