Zacznij systematycznie uczyć się grać na gitarze razem ze stroną Moja nauka - będziesz miał/miała do niej dostęp po zalogowaniu się w serwisie

Styrana - Happysad

Opracował -a: mateusz93z,
Redaktor: Miłosz,
Pochodzi z: http://www.chorda.pl
Data publikacji: 2009-05-21 19:53, Poprawiono 2009-05-21 19:56
 
Moja nauka


Ups, problem :-/
Zaloguj się Mój śpiewnik


Intro:

                                                                 x6
E||-------------------------------------------------------15--||
A||---13------13-------13------13-------13--12----------------||
D||-------14-------12------12-------14------------14----------||
G||-----------------------------------------------------------||
H||-----------------------------------------------------------||
E||-----------------------------------------------------------||

Dalej:

  Znowu wracasz...             a G C E a G C E
  Znowu Cię...                 C G C E
  Znów nie...                  a G C E a G C E
  Tępo patrzysz...             a G C E a G C E
  A Ja...                      a
  Ni z oczu Twych...           E a F E
  Zaciśniętych...              a G C F
  Możesz...                    E a F E
  
Następnie:                     a G C F  x4

  Znowu budzisz...             a G C E a G C E
  Znowu Cię widzę...           C G C E
  Znów nie pytam...            a G C E a G C E
  Tępo patrzysz...             a G C E a G C E
  A Ja znikąd...               a
  Ni z oczu Twych...           E a F E
  Zaciśniętych...              a G C F
  Możesz milczeć...            E a F E

Następnie:                     a G C F  x4


                                                                 x6
E||-------------------------------------------------------15--||
A||---13------13-------13------13-------13--12----------------||
D||-------14-------12------12-------14------------14----------||
G||-----------------------------------------------------------||
H||-----------------------------------------------------------||
E||-----------------------------------------------------------||


  Znikąd się więcej...         a
  Ni z oczu Twych...           E a F E
  zaciśniętych do krwi...      a G C F
  Możesz milczeć...            E a F E
  Nic mi więcej...             a G C F
  Niewzruszone ramię...        E a F E
  Przestępujące ciało...       a G C F
  Z nogi na nogę...            E a F E
  Możesz milczeć sobie...      a G C F  x3


  I tak wiemy oboje...         E a F E
                               a G C F  x4
                               a a a

Dodaj komentarz ...i/lub link do filmiku video

Zaloguj się do serwisu
Ostatnie komentarze
1.
jacob2002123
2014-12-21 11:48
Ja intro gram tak (moim zdaniem lepiej brzmi) E}---------------------------12--- H}-13---13----13---13--12--13---13 G}----12---12---12-------------
Wszelkie materiały i wypowiedzi zamieszczone na www.chords.pl są własnością ich autorów.