Zacznij systematycznie uczyć się grać na gitarze razem ze stroną Moja nauka - będziesz miał/miała do niej dostęp po zalogowaniu się w serwisie

Milowy las (solo) - Happysad

Opracował -a: lukaszwilk,
Dodał -a: lukaszwilk,
Redaktor: Tomek Pietrzkowski,
Pochodzi z: http://www.chords.pl
Data publikacji: 2010-06-03 10:11
 
Moja nauka


Ups, problem :-/
Zaloguj się Mój śpiewnik


3:02

|------------------------------7-5----8-8-8-5-5-5--5-5-5-------------|
|---6-6-6-5-5-5--6-6-6-5-5-5-5----5----------------------8-8-8-8-5---|
|--------------------------------------------------------------------|
|--------------------------------------------------------------------|
|--------------------------------------------------------------------|
|--------------------------------------------------------------------|

3:15

|-3/5-5--------------------5-5-----------|
|-------8-6-5h6-5-------------8-6-5h8-5--|
|-----------------7-5--7p5---------------|
|----------------------------------------|
|----------------------------------------|
|----------------------------------------|

3:28

|-------17-20---------------------------17-20----------|
|-/18-17-------17-15-17--17-20p17-18--17------17-15-17-|
|------------------------------------------------------|
|------------------------------------------------------|
|------------------------------------------------------|
|------------------------------------------------------|

3:41

|-1-1-1-0-0-0--1-1-1-0-0-0-0-0-0->
|-3-3-3-3-3-3--3-3-3-3-3-3-3-3-1->
|-2-2-2-2-2-2--2-2-2-2-2-2-2-2-2->
|-0-0-0-0-0-0--0-0-0-0-0-0-0-0-2-> x2
|------------------------------0-|
|------------------------------0-|

Dodaj komentarz ...i/lub link do filmiku video

Zaloguj się do serwisu
Ostatnie komentarze
1.
LucasG
2010-06-03 11:36
Wziąłem gitarkę, sprawdziłem. Jest git ;-)
Wszelkie materiały i wypowiedzi zamieszczone na www.chords.pl są własnością ich autorów.