Zacznij systematycznie uczyć się grać na gitarze razem ze stroną Moja nauka - będziesz miał/miała do niej dostęp po zalogowaniu się w serwisie

Manewry Szczęścia - Happysad

Opracowali: biskup, Themer,
Pochodzi z: http://www.chords.pl
Data publikacji: 2005-05-21 00:21
 
Moja nauka


Ups, problem :-/
Zaloguj się Mój śpiewnik


cała piosenka:
d F C C


intro - na basie :)

g|------------------------------------------------||
d|-0--0-0-3--3-0-3--3--3-3-3-3-4--0--0-0-3--3-0-3-||
a|------------------------------------------------||
e|------------------------------------------------||


Po Intrze i po refrenach:

..............................x3
e|----------------------------|-------------------------------------------||
b|------6-6-------------------|------6-6----------------------------------||
g|-7-7--5-5--5--5--5-5--5-5-6-|-7-7--5-5----------------------------------||
d|-7-5--3-3--5--5--5-5--5-5-6-|-7-7--3-3--7-7-7-7-7-7-7-7-7-7-7-7-7-7-7-7-||
a|-5-5-------3--3--3-3--3-3-4-|-5-5-------7-7-7-7-7-7-7-7-7-7-7-7-7-7-7-7-||
e|----------------------------|-----------5-5-5-5-5-5-5-5-5-5-5-5-5-5-5-5-||

Kończący riff powyzej :)
e|-5-----------||
b|----5--2-----||
g|----------2--||
d|-------------||
a|-------------||
e|-------------||


Po 2 refrenie:

e|-------------------------------------------------|
b|-1/3-3-3-3-3-1----3/5-5-5-5-5-3-1--3--1-3-1------|
g|---------------2-----------------------------2---|
d|-------------------------------------------------|
a|-------------------------------------------------|
e|-------------------------------------------------|

e|-3/5-5-5-5-5-3-1--1/3-3-3-3-3-1-0--1--0-1-0------|
b|---------------------------------------------1---|
g|-----------------------------------------------2-|
d|-------------------------------------------------|
a|-------------------------------------------------|
e|-------------------------------------------------|

e|-------------------------------------------------|
b|-1/3-3-3-3-3-1----3/5-5-5-5-5-3-1--3--1-3-1------|
g|---------------2-----------------------------2---|
d|-------------------------------------------------|
a|-------------------------------------------------|
e|-------------------------------------------------|

e|-3/5-5-5-5-5-3-1--0-0-0-1-3-1-0-----1--0-1-0-----|-----------||
b|---------------------------------------------1---|-3---1-----||
g|-----------------------------------------------2-|---------0-||
d|-------------------------------------------------|-----------||
a|-------------------------------------------------|-----------||
e|-------------------------------------------------|-----------||

Dodaj komentarz ...i/lub link do filmiku video

Zaloguj się do serwisu
Ostatnie komentarze
1.
invitron
2012-04-07 16:20
na początku w intro jest ta końcówka jeszcze 0-3 a potem "hoho" g|-------------------------------------------------------------------|| d|-0--0-0-3--3-----------------------0--0-0-3--3---------------------|| a|---------------0-3--3-3--3-3--4-4---------------0-3-0-3-0-3-0-3-4--|| e|-------------------------------------------------------------------||
2.
adam_98
2008-01-29 22:46
moim zdaniem intro idzie tak: g|--------------------------------------------------------------|| d|-0--0-0-3--3-----------------------0--0-0-3--3------------|| a|---------------0p3-3--0-3-0-3-4-----------------0-3------|| e|--------------------------------------------------------------||
3.
grqtomek
2007-05-05 18:39
Stary, weź sobie uszy wyczyść
4.
eroll007
2006-09-04 17:53
ogolnie kiepskie opracowanie... a piosenka fajna
5.
kath333
2006-04-02 17:32
g|--------------------------------------------------------------|| d|-0--0-0-3--3-----------------------0--0-0-3--3------------|| a|---------------0-3--3-3--3-3--4-4---------------0-3-------|| e|--------------------------------------------------------------|| Prawidłowe intro na bass :] *Kath*
Wszelkie materiały i wypowiedzi zamieszczone na www.chords.pl są własnością ich autorów.