Zacznij systematycznie uczyć się grać na gitarze razem ze stroną Moja nauka - będziesz miał/miała do niej dostęp po zalogowaniu się w serwisie

Na ślinę - Happysad

Opracował -a: kacperr16,
Dodał -a: kacperr16,
Redaktor: SEBEK1304,
Pochodzi z: http://www.chords.pl
Data publikacji: 2012-09-04 22:40
 
Moja nauka


Ups, problem :-/
Zaloguj się Mój śpiewnik


happysad - na ślinę

Zwrotki:

D  A  h  G

D  A  h  G

D  A  h  fis

G  D  A

w utworze grane są dźwięki ze strun basowych, coś w stylu powerchordów

np.

E|----X------|
B|----X------|
G|----X------|
D|----7------|
A|----5------|
H|----X------|

      D

w niektórych frazach akordy rozłożone są poszczególne dźwięki

Przejście 1:

D  A  G

i pan latawiec gra wstawki:

E|----7---5---------10---9----------7---5--------7---10----|
B|-----------7---------------10-------------7--------------|
G|---------------------------------------------------------|
D|---------------------------------------------------------|
A|---------------------------------------------------------|
E|---------------------------------------------------------|


Kolejno leci zwrotka nr 2 ( jak wyżej )


Przejście 2:


Pan Latawiec

E|---------------------------------|
B|---------------------------------|
G|------7s6-----------7s6----------|    2x
D|----------7---4----------7---5---|
A|---------------------------------|
E|---------------------------------|

Kuba Kawalec

E|----7---5---------10---9----------7---5--------10-10-10-10--|
B|-----------7---------------10-------------7----10-10-10-10--|
G|------------------------------------------------------------|
D|------------------------------------------------------------|
A|------------------------------------------------------------|
E|------------------------------------------------------------|


Refren:

D  A  h  G      |
                |
D  A  h  G      |   gitara Kuby Kawalca
                |
D  A  h  fis    |
                |
G  D  A         |

Pan Latawiec w tym czasie gra dźwięki po strunach, nie dokońca mogę ję wyłapać.


Przejście 3:

Pan Latawiec

E|---------------------------------|
B|---------------------------------|
G|------7s6-----------7s6----------|    2x
D|----------7---4----------7---5---|
A|---------------------------------|
E|---------------------------------|


E|---------------------------------|
B|-----7-7-7-------7-7-7-----------|
G|-----------6-7----------6--------|    2x
D|----------------------------5----|
A|---------------------------------|
E|---------------------------------|

Kuba dogrywa funkcje:

E|---10------10----|
B|---10------12----|
G|---11------12----|
D|---12------12----|
A|-----------------|
E|-----------------|

     D       G


Zwrotka 3 ( jak wyżej )

Refren: (jak wyżej tyle że grane w tym stylu co zwrotki)

 + refren kolejny raz grany w ostrzejszy sposób

Zakończenie(podobnie do przejścia nr 3):

Pan Latawiec

E|---------------------------------|
B|---------------------------------|
G|------7s6-----------7s6----------|    2x
D|----------7---4----------7---5---|
A|---------------------------------|
E|---------------------------------|


E|---------------------------------|
B|-----7-7-7-------7-7-7-----------|
G|-----------6-7----------6--------|    2x
D|----------------------------5----|
A|---------------------------------|
E|---------------------------------|

Kuba dogrywa funkcje:

E|---10------10----|
B|---10------12----|
G|---11------12----|
D|---12------12----|
A|-----------------|
E|-----------------|

     D       G


;)  ps. partie Pana Latawca postaram się ogarnąć i dodać.

Dodaj komentarz ...i/lub link do filmiku video

Zaloguj się do serwisu
Ostatnie komentarze
1.
tMQ
2012-09-09 12:26
g------------------------- d---4--------------------- a---5---4---5---0---2----- e-------5---7---2---3-----
Wszelkie materiały i wypowiedzi zamieszczone na www.chords.pl są własnością ich autorów.